» » »

Vandals, My Special Moment Tabs (ver.1)

Artists:  A B C D E F G H I J K L M N O P Q R S T U V W X Y Z # 

My Special Moment Tabs (ver.1)

Vandals Tabs
Rating:
5/5 (2 votes)
My Special Moment lessons Tabs too difficult? Try these video lessons and learn fast
                Band: The Vandals

Intro:

E|------------------------------------------0---|
B|--------------------------------------4---0---|
G|--9---9---9---9---9---9---9---9-------4~--1---|
D|--9-9-9-9-9-9-9-9-9-9-9-9-9-9-9-9-2~--4---2~--|
A|--7-9-7-9-7-9-7-9-7-9-7-9-7-9-7-9-2---2---2---|
E|----7---7---7---7---7---7---7---7-0-------0---|

Chorus:

E|--0----4----0----2----0----2----0----2----0--0----------|
B|--0----5----2----2----2----2----2----2----0----0--------|
G|--1----6----2----2----2----2----2----2----1------1------|
D|--2----6----2----4----2----4----2----4----2--------2----|
A|--2----4----0----4----0----4----0----4----2-------------|
E|--0--------------2---------2---------2----0----------2--|

Verse:

(And I'll seize...)
E|------------------------------|
B|------------------------------|
G|----9--------11~----9~--------|
D|--9-9--9~----11-----9-----9~--|
A|--9-7--9------9-----7-----9---|
E|--7----7------------------7---|

(And with passion and no talent...)
E|---------------------------------------------------------------|
B|-----------------------------------xxxxxxxxxxxx--xxxxxxxxxxxx--|
G|----9--xxxxxxxxxxxx--xxxxxxxxxxxx--666666666666--999999999999--|
D|--9-9--999999999999--777777777777--666666666666--999999999999--|
A|--9-7--999999999999--777777777777--444444444444--777777777777--|
E|--7----777777777777--555555555555------------------------------|

E|---------------------------------------|
B|---------------------------------------|
G|--2~--6-4-2-1/2-------2-6-4-2-1/2------|
D|--2-------------4-2---------------4-2--|
A|--0------------------------------------|
E|---------------------------------------|

(My sh*tty life...)
E|------------------------------------|
B|------------------------------------|
G|------------66666666----------------|
D|--77777777--66666666--444444444444--|
A|--77777777--44444444--444444444444--|
E|--55555555------------222222222222--|

(Remember how I did this...)
E|--------------------------------------------------------|
B|--------------------------------------------------------|
G|--77777777------------77777777--------------------------|
D|--77777777--99999999--77777777--99999999--777777777777--|
A|--55555555--99999999--55555555--99999999--777777777777--|
E|------------77777777------------77777777--555555555555--|

(Remember how I did this...)
E|--------------------------------|
B|--------------------------------|
G|--777-6-444-6-777-6/161616-1-2--|
D|--------------------------------|
A|--------------------------------|
E|--------------------------------|

(They'll see...)
E|----------------|
B|----------------|
G|--999999999999--|
D|--999999999999--|
A|--777777777777--|
E|----------------|

(Kicking, screaming, fighting...)
E|--------------------------------------------------------|
B|--------------------------------------------------------|
G|--77777777------------77777777--------------------------|
D|--77777777--99999999--77777777--99999999--777777777777--|
A|--55555555--99999999--55555555--99999999--777777777777--|
E|------------77777777------------77777777--555555555555--|

(Kick, screaming, fighting...)
E|----------------------------------------------|
B|----------------------------------------------|
G|--777-6-444-6-777-6/161616-1-2-6-4-2-1/2------|
D|-----------------------------------------2-4--|
A|----------------------------------------------|
E|----------------------------------------------|

Chorus:

E|-----------------------------------------|
B|-----------------------------------------|
G|---------------------------777777777777--|
D|--7-2--77777777--44444444--777777777777--|
A|--7-2--77777777--44444444--555555555555--|
E|--5-0--55555555--22222222----------------|

(I know that I have earned this...)
E|------------------------------------------|
B|------------------------------------------|
G|------------77777777------------77777777--|
D|--99999999--77777777--99999999--77777777--|
A|--99999999--55555555--99999999--55555555--|
E|--77777777------------77777777------------|

(Do not f**k with me...)
E|-------------------------|
B|-------------------------|
G|-------------------------|
D|--7777777777777777--7-2--|
A|--7777777777777777--7-2--|
E|--5555555555555555--5-0--|

E|---------------------------------------|
B|---------------------------------------|
G|--2~--6-4-2-1/2-------2-6-4-2-1/2------|
D|--2-------------4-2---------------4-2--|
A|--0------------------------------------|
E|---------------------------------------|

Verse:

(Oh God, I'm doing it...)
E|------------------------------------|
B|------------------------------------|
G|------------66666666----------------|
D|--77777777--66666666--444444444444--|
A|--77777777--44444444--444444444444--|
E|--55555555------------222222222222--|

(Reaching for the skies...)
E|--------------------------------------------------------|
B|--------------------------------------------------------|
G|--77777777------------77777777--------------------------|
D|--77777777--99999999--77777777--99999999--777777777777--|
A|--55555555--99999999--55555555--99999999--777777777777--|
E|------------77777777------------77777777--555555555555--|

(Reaching for the skies...)
E|--------------------------------|
B|--------------------------------|
G|--777-6-444-6-777-6/161616-1-2--|
D|--------------------------------|
A|--------------------------------|
E|--------------------------------|

(Who dares...)
E|----------------|
B|----------------|
G|--999999999999--|
D|--999999999999--|
A|--777777777777--|
E|----------------|

(Conquering the fear...)
E|-----------------------------------------------------------------------|
B|-----------------------------------------------------------------------|
G|--77777777------------77777777-----------------------------------------|
D|--77777777--99999999--77777777--99999999--7-2-7-2-7-2-7-2-7-2-7-2-7-2--|
A|--55555555--99999999--55555555--99999999--7-2-7-2-7-2-7-2-7-2-7-2-7-2--|
E|------------77777777------------77777777--5-0-5-0-5-0-5-0-5-0-5-0-5-0--|

(Conquering the fear...)
E|---------------------------------------------------------|
B|---------------------------------------------------------|
G|--777-6-444-6-777-6/161616-------------------------------|
D|----------------------------7-2-7-2-7-2-7-2-7-2-7-2-7-2--|
A|----------------------------7-2-7-2-7-2-7-2-7-2-7-2-7-2--|
E|----------------------------5-0-5-0-5-0-5-0-5-0-5-0-5-0--|

Chorus:

E|-----------------------------------------|
B|-----------------------------------------|
G|---------------------------777777777777--|
D|--7-2--77777777--44444444--777777777777--|
A|--7-2--77777777--44444444--555555555555--|
E|--5-0--55555555--22222222----------------|

(I know that I have earned this...)
E|------------------------------------------|
B|------------------------------------------|
G|------------77777777------------77777777--|
D|--99999999--77777777--99999999--77777777--|
A|--99999999--55555555--99999999--55555555--|
E|--77777777------------77777777------------|

(Do not f**k with me...)
E|-------------------------|
B|----------(3x)-----------|
G|-------------------------|
D|--7777777777777777--7-2--|
A|--7777777777777777--7-2--|
E|--5555555555555555--5-0--|

E|----------------------------------------|
B|----------------------------------------|
G|----------------------------------------|
D|--7-2-7-2-7-2-7-2-7-2-7-2-7-2--7--2--7--|
A|--7-2-7-2-7-2-7-2-7-2-7-2-7-2--7--2--7--|
E|--5-0-5-0-5-0-5-0-5-0-5-0-5-0--5--0--5--|
            
Submit corrections

comments powered by Disqus
↑ Back to top | Vandals Tabs for My Special Moment. Lyrics for acoustic guitar and electric guitar. Tablatures and chords are parodies/interpretations of the original songs. You may use it for private study, scholarship, research or language learning purposes only