» » »

Marry Me Tabs (ver.1)

Artists:  A B C D E F G H I J K L M N O P Q R S T U V W X Y Z # 

Marry Me Tabs (ver.1)

Vandals
Rating:
0/5 (0 votes)

Hard to play? Try these video lessons and learn fast.
                -------------------------------------------------------------------------------
                             Marry Me - the Vandals
-------------------------------------------------------------------------------

Tuning:Standard

YES THE GUY WHO TABBED THIS INCLUDED THE *SOLO*

intro. 
e-|---------------------------------------------------------------| 
B-|---------------------------------------------------------------| 
G-|--x-7-7--------x-7-7---------------------11-11-11-11-11-11-11--| 
D-|--x-7-7-x-7-7--x-7-7-x-7-7---9-9-9-9-9-9--9--9--9--9--9--9--9--| 
A-|--x-5-5-x-7-7--x-5-5-x-7-7---9-9-9-9-9-9-----------------------| 
E-|--------x-5-5--------x-5-5---7-7-7-7-7-7-----------------------| 

e-|----------------------------| 
B-|----------------------------| 
G-|----------------------------| 
D-|----------------------------| 
A-|-2-2-2-2-2-2-2-2--2-2-2-2-2-| 
E-|-0-0-0-0-0-0-0-0--0-0-0-0-0-| 

VERSE: play twice 
e-|------------------------------------------------------| 
B-|------------------------------------------------------| 
G-|--------------------------------------------6-6-6-6-4-| 
D-|--2-2-2-2-2-2-6-6-6-6-6-6--7-7-7-7-7-4-4-4--6-6-6-6-4-| 
A-|--2-2-2-2-2-2-6-6-6-6-6-6--7-7-7-7-7-4-4-4--4-4-4-4-2-| 
E-|--0-0-0-0-0-0-4-4-4-4-4-4--5-5-5-5-5-2-2-2------------| 
pm................................... 

e-|---0-------------------------------------------------------------------| 
B-|---0-------------------------------------------------------------------| 
G-|---0-------------------------------------------------------------9-8-9-| 
D-|-2-2-2-2-2-2-6-6-6-6-6-6--7-7-7-4-4-4-6-6-6-2-2-2--7-7-7-7-4-4-4-9-8-9-| 
A-|-2-2-2-2-2-2-6-6-6-6-6-6--7-7-7-4-4-4-6-6-6-2-2-2--7-7-7-7-4-4-4-7-6-7-| 
E-|-0-0-0-0-0-0-4-4-4-4-4-4--5-5-5-2-2-2-4-4-4-0-0-0--5-5-5-5-2-2-2-------| 
pm................................................. 

CHORUS: 
e-|--------------------------------------------------------------------| 
B-|--------------------------------------------------------------------| 
G-|---------9-9-9-9---------9-9-9-9------------------------------------| 
D-|-9-9-9-9-9-9-9-9-9-9-9-9-9-9-9-9--7-7-7-7-7-7-7-9-9-9-9-9--9--9--9--| 
A-|-9-9-9-9-7-7-7-7-9-9-9-9-7-7-7-7--7-7-7-7-7-7-7-9-9-9-9-9--9--9--9--| 
E-|-7-7-7-7---------7-7-7-7----------5-5-5-5-5-5-5-7-7-7-7-7--7--7--7--| 

e-|-------------------------------------------| 
B-|-------------------------------------------| 
G-|-------------------------------------------| 
D-|-2-2-2-2-2-2-2--7-7-7-7-7-7--9-9-9-9-9-9-9-| 
A-|-2-2-2-2-2-2-2--7-7-7-7-7-7--9-9-9-9-9-9-9-| 
E-|-0-0-0-0-0-0-0--5-5-5-5-5-5--7-7-7-7-7-7-7-| 

e-|--------------------------------------------------------------| 
B-|--------------------------------------------------------------| 
G-|--------------------------------------------------------------| 
D-|-6-6-6-6-6-6-6--7-7-7-7-7-7-7-7--2-2-2-2-2-2-2-2--2-2-2-2-2-2-| 
A-|-6-6-6-6-6-6-6--7-7-7-7-7-7-7-7--2-2-2-2-2-2-2-2--2-2-2-2-2-2-| 
E-|-4-4-4-4-4-4-4--5-5-5-5-5-5-5-5--0-0-0-0-0-0-0-0--0-0-0-0-0-0-| 
pm.......... ......... 
Repeat Verse 
Repeat Chorus 
BRIDGE: 
e-|-----------------------------------------------------------------------| 
B-|-----------------------------------------------12-12-12-12-12-12-12-12-| 
G-|-----------------------------------------------11-11-11-11-11-11-11-11-| 
D-|-6-6-6-6-6-6-6--7-7-7-7-7-7-7-7--9-9-9-9-9-9-9--9--9--9--9--9--9--9--9-| 
A-|-6-6-6-6-6-6-6--7-7-7-7-7-7-7-7--9-9-9-9-9-9-9-------------------------| 
E-|-4-4-4-4-4-4-4--5-5-5-5-5-5-5-5--7-7-7-7-7-7-7-------------------------| 

e-|-------------------------------------------------/9---------| 
B-|------------------------/9--7---------------------------12--| 
G-|--/9(p.h.)-----9--8-------------9-9-8---9-9-8---------------| 
D-|-----------9-6------9-6---------------9--------9------------| 
A-|------------------------------------------------------------| 
E-|------------------------------------------------------------| 

e-|-x-12-12-12-12-11-12-14-16------------------------------| 
B-|----0-16-14-16------------------14-----10-----12--------| 
G-|----0-----------------------/14----/11----/13--------13-| 
D-|-------------------------------------------------/14----| 
A-|--------------------------------------------------------| 
E-|--------------------------------------------------------| 

e-|---------------------------------| 
B-|-----14--------------------------| 
G-|-/14----14-16-14-13-11-9-9(p.h.)-| 
D-|---------------------------------| 
A-|---------------------------------| 
E-|---------------------------------| 

Repeat Chorus (play last bar 3 times last time)
            
Hard to play? Try these video lessons and learn fast. | Correct




comments powered by Disqus
↑ Back to top | Tablatures and chords are parodies/interpretations of the original songs. You may use it for private study, scholarship, research or language learning purposes only