» » »

Vandals, Live Fast, Diarrhea Tabs (ver.1)

Artists:  A B C D E F G H I J K L M N O P Q R S T U V W X Y Z # 

Live Fast, Diarrhea Tabs (ver.1)

Vandals Tabs
Rating:
0/5 (0 votes)
Live Fast, Diarrhea lessons Tabs too difficult? Try these video lessons and learn fast
                -------------------------------------------------------------------------------
                        LIVE FAST DIAHREA - Vandals
-------------------------------------------------------------------------------


standard tuning eBGDAE

note: 1 word describes this song: INSANE!!!!  But not too complicated.  Again I did not
tab the high pitched rings, just cuz I'm lazy.

Intro
|-------7----------|
|-6-5-6----6-5-6---|
|----------------7-|
|------------------|
|------------------|
|------------------|

Verse X1              
|--------------|-------7----------|
|---------*----|-6-5-6----6-5-6---|
|-7------7-----|------------------|  play Intro riff X4
|-7-X16--7-X16-|------------------|
|-5------5-----|------------------|
|--------------|------------------|
         
*=mute every other note with your left hand

Chorus X1
|----------------------------------------|
|----------------------------------------|
|----------------------------------------|
|-3-3-3-3-10--10-10-10--3-3-3-3-8--8-8-8-| 
|-3-3-3-3-10--10-10-10--3-3-3-3-8--8-8-8-|
|-1-1-1-1-8---8--8--8---1-1-1-1-6--6-6-6-|

|---------------------------------------|
|---------------------------------------|
|---------------------------------------|
|-3-3-3-3-10--10-10-10--3-3-3-3-3-3-3-3-|
|-3-3-3-3-10--10-10-10--3-3-3-3-3-3-3-3-|
|-1-1-1-1-8---8--8--8---1-1-1-1-1-1-1-1-|

|----------------------|
|----------------------|
|----------------------|
|-3--3-3--3-3--3--2--2-| X4
|-3--3-3--3-3--3--2--2-|
|-1--1-1--1-1--1--0--0-|

then Verse X1
then Chorus X1
then Intro X4

then:
|---7^----------------7~~~~~~~~-|
|-6-------6-10^-----6-----------|
|-------------------------------|
|-------------------------------|
|-------------------------------|
|-------------------------------|

Then Chorus X1

-------------------------------------------------------------------------------
            

comments powered by Disqus
↑ Back to top | Vandals Tabs for Live Fast, Diarrhea. Lyrics for acoustic guitar and electric guitar. Tablatures and chords are parodies/interpretations of the original songs. You may use it for private study, scholarship, research or language learning purposes only