» » »

Little Weirdo Tabs (ver.1)

Artists:  A B C D E F G H I J K L M N O P Q R S T U V W X Y Z # 

Little Weirdo Tabs (ver.1)

Vandals
Rating:
0/5 (0 votes)

Hard to play? Try these video lessons and learn fast.
                
x = p.m.

Ok for improvements etc mail, this is what I've come up with today, I'll improve
the tab later for myself, some parts are not completly right I think but I got
close I think! ENJOY! 
Vandals RULE! 

INTRO part1:
Guitar 1 
e|---------------------------------------------------------------------------|
B|---------------------------------------------------------------------------|
G|--10101010--7777--3333--5555-----------------------------------------------|
D|--10101010--7777--3333--5555-----------------------------------------------|
A|--8-8-8-8---5555--1111--3333-----------------------------------------------|
E|---------------------------------------------------------------------------|
    x x x x   xxxx  xxxx  xxxx

then Intro continues with octave riff:

INTRO part2:
         1st/3rd time                    2nd time         4th time (do 4 times)        
e|----------------------------|---------------------|------------------------|
B|----------------------------|---------------------|------------------------|
G|--10-9-10-12-10-9----3-5-3--|-10-9-10-12---3--5---|--3-5-3-----------------|
D|--x--x-x--x--x--x----x-x-x--|-x--x-x--x----x--x---|--x-x-x-----------------|
A|--8--7-8--10-8--7----1-3-1--|-8--7-8--10---1--3---|--1-3-1-----------------|
E|----------------------------|---------------------|------------------------|

  Guitar 1: (I'm not completly sure about this part , so for now play this:)
e|---------------------------------------------------------------------------|
B|---------------------------------------------------------------------------|
G|--17-15-14141414-----------------------------------------------------------|
D|--x--x--x-x-x-x------------------------------------------------------------|
A|--15-13-12121212-----------------------------------------------------------|
E|---------------------------------------------------------------------------|
  Guitar 2: play back up chords from intro  
e|-------------|-------------------------------------------------------------|
B|-------------|-------------------------------------------------------------|
G|--10-7-3-5---|--1010101010101010-------------------------------------------|
D|--10-7-3-5---|--1010101010101010--play 4 times-----------------------------|
A|--8--5-1-3---|--8-8-8-8-8-8-8-8--------------------------------------------|
E|-------------|-------------------------------------------------------------|
                      x x x x x x

VERSE:(2x)
The little weirdo down the street says he’s making.....
e|---------------------------------------------------------------------------|
B|---------------------------------------------------------------------------|
G|-1010101010101010--77777777--33333333-55555555--5--------------------------|
D|-1010101010101010--77777777--33333333-55555555--5-play 16x unmuted---------|
A|-8-8-8-8-8-8-8-8---55555555--11111111-33333333--3--------------------------|
E|---------------------------------------------------------------------------|
   x x x x x x x x   xxxxxxxx  xxxxxxxx xxxxxxxx 


CHORUS:
Guitar 1: 
Set the controls for the ....   Fly Away , Fly Away 
e|----------------------------|----------------------------------------------|
B|----------------------------|----------------------------------------------|
G|-3333-5555-7777-5555--------|--5555555555555555----------------------------|
D|-3333-5555-7777-5555--------|--5555555555555555----------------------------|
A|-1111-3333-5555-3333--------|--3333333333333333----------------------------|
E|----------------------------|----------------------------------------------|

Guitar 2:
e|----------------------------|----------------------------------------------|
B|----------------------------|----------------------------------------------|
G|-3333-5555-7777-5555--------|--3-5-3---------------------------------------|
D|-3333-5555-7777-5555--------|--x-x-x--play 4 times-------------------------|
A|-1111-3333-5555-3333--------|--1-3-1---------------------------------------|
E|----------------------------|----------------------------------------------|

BRIDGE:
e|---------------------------------------------------------------------------|
B|---------------------------------------------------------------------------|
G|--17-15-14141414--17-15-14141414--10-9-14-15151515--17-15-14141414---------|
D|--x--x--x-x-x-x---x--x--x-x-x-x---x--x-x--x-x-x-x---x--x--x-x-x-x----------|
A|--15-13-12121212--15-13-12121212--8--7-12-13131313--15-13-12121212---------|
E|---------------------------------------------------------------------------|

e|---------------------------------------------------------------------------|
B|---------------------------------------------------------------------------|
G|--1010101010101010---------------------------------------------------------|
D|--1010101010101010--play 4 times-------------------------------------------|
A|---8-8-8-8-8-8-8-8---------------------------------------------------------|
E|---------------------------------------------------------------------------|
         x x x x x x

Play Order:
Intro Part 1 (1x)
Intro Part 2 (1x)
Verse  (2x)
Chorus (1x)
Intro Part 2 (1x)
Verse  (2x)
Chorus (1x)
Intro Part 2 (1x)
Bridge
Verse  (1x)
Chorus (1x)
Intro Part 2 (1x)
            
Hard to play? Try these video lessons and learn fast. | Correct




comments powered by Disqus
↑ Back to top | Tablatures and chords are parodies/interpretations of the original songs. You may use it for private study, scholarship, research or language learning purposes only