» » »

Vandals, Kokomo Tabs (ver.1)

Artists:  A B C D E F G H I J K L M N O P Q R S T U V W X Y Z # 

Kokomo Tabs (ver.1)

Vandals Tabs
Rating:
0/5 (0 votes)
Kokomo lessons Tabs too difficult? Try these video lessons and learn fast
                Verse 
e|------------------------------------| 
B|------------------------------------| 
G|----5-5-5-5-------------------------| 
D|----5-5-5-5-2-2-xx--2-2-xx--2-2-xx--| 
A|----3-3-3-3-2-2-xx--2-2-xx--2-2-xx--| 
E|------------0-0-xx--0-0-xx--0-0-xx--| 

e|-------------------------------------------------| 
B|-------------------------------------------------| 
G|-------------------------------------------------| 
D|-5-5-xx--5-5-xx--3-3-xx--3-3-xx--3-3-xx--3-3-xx--| 
A|-5-5-xx--5-5-xx--3-3-xx--3-3-xx--3-3-xx--3-3-xx--| 
E|-3-3-xx--3-3-xx--1-1-xx--1-1-xx--1-1-xx--1-1-xx--| 

e|------------------------------------------| 
B|------------------------------------------| 
G|-5-5-xx--5-5-xx--7-7-xx--7-7-xx-----------| 
D|-5-5-xx--5-5-xx--7-7-xx--7-7-xx--5-5-5-5--| 
A|-3-3-xx--3-3-xx--5-5-xx--5-5-xx--5-5-5-5--| 
E|---------------------------------3-3-3-3--| 

e|----------------------------------------------------------------------------------------------------| 
B|----------------------------------------------------------------------------------------------------| 
G|-------------------------------------------------------------5^-5^-5^-5^-7^-7^-7^-7^-7^-7^-7^-7^--| 
D|-5^-5^-5^-5^-2^-2^-2^-2^-5^-5^-5^-5^-3^-3^-3^-3^-3^-3^-3^-3^-5^-5^-5^-5^-7^-7^-7^-7^-7^-7^-7^-7^--| 
A|-5^-5^-5^-5^-2^-2^-2^-2^-5^-5^-5^-5^-3^-3^-3^-3^-3^-3^-3^-3^-3^-3^-3^-3^-5^-5^-5^-5^-5^-5^-5^-5^--| 
E|-3^-3^-3^-3^-0^-0^-0^-0^-3^-3^-3^-3^-1^-1^-1^-1^-1^-1^-1^-1^----------------------------------------| 

Chorus 
e|---------------------------------------------------------------------------------------------------------------------------| 
B|---------------------------------------------------------------------------------------------------------------------------| 
G|-5-5-5-5-5-5-5-5-5-5-5-5-5-5-5-5---------------------------------5-5-5-5-5-5-5-5-5-5-5-5-5-5-5-5--------------------------| 
D|-5-5-5-5-5-5-5-5-5-5-5-5-5-5-5-5-3-3-3-3-3-3-3-3-3-3-3-3-3-3-3-3-5-5-5-5-5-5-5-5-5-5-5-5-5-5-5-5-3^-3^-3^-3^-3^-3^-3^-3^--| 
A|-3-3-3-3-3-3-3-3-3-3-3-3-3-3-3-3-3-3-3-3-3-3-3-3-3-3-3-3-3-3-3-3-3-3-3-3-3-3-3-3-3-3-3-3-3-3-3-3-3^-3^-3^-3^-3^-3^-3^-3^--| 
E|---------------------------------1-1-1-1-1-1-1-1-1-1-1-1-1-1-1-1---------------------------------1^-1^-1^-1^-1^-1^-1^-1^---| 

e|----------------------------------------| 
B|----------------------------------------| 
G|-5^-5^-5^-5^-2^-2^-2^-2^----------------| 
D|-5^-5^-5^-5^-2^-2^-2^-2^-3^-3^-3^-3--5--| 
A|-3^-3^-3^-3^-0^-0^-0^-0^-3^-3^-3^-3--5--| 
E|-------------------------1^-1^-1^-1--3--| 

Verse2 
e|-----------------------------------------| 
B|-----------------------------------------| 
G|-5-5-5-5-5-5-5-5-------------------------| 
D|-5-5-5-5-5-5-5-5-2-2-xx--2-2-xx--2-2-xx--| 
A|-3-3-3-3-3-3-3-3-2-2-xx--2-2-xx--2-2-xx--| 
E|-----------------0-0-xx--0-0-xx--0-0-xx--| 

e|-------------------------------------------------| 
B|-------------------------------------------------| 
G|-------------------------------------------------| 
D|-5-5-xx--5-5-xx--3-3-xx--3-3-xx--3-3-xx--3-3-xx--| 
A|-5-5-xx--5-5-xx--3-3-xx--3-3-xx--3-3-xx--3-3-xx--| 
E|-3-3-xx--3-3-xx--1-1-xx--1-1-xx--1-1-xx--1-1-xx--| 

e|------------------------------------------| 
B|------------------------------------------| 
G|-5-5-xx--5-5-xx--7-7-xx--7-7-xx-----------| 
D|-5-5-xx--5-5-xx--7-7-xx--7-7-xx--5-5-5-5--| 
A|-3-3-xx--3-3-xx--5-5-xx--5-5-xx--5-5-5-5--| 
E|---------------------------------3-3-3-3--| 

e|----------------------------------------------------------------------------------------------------| 
B|----------------------------------------------------------------------------------------------------| 
G|-------------------------------------------------------------5^-5^-5^-5^-7^-7^-7^-7^-7^-7^-7^-7^--| 
D|-5^-5^-5^-5^-2^-2^-2^-2^-5^-5^-5^-5^-3^-3^-3^-3^-3^-3^-3^-3^-5^-5^-5^-5^-7^-7^-7^-7^-7^-7^-7^-7^--| 
A|-5^-5^-5^-5^-2^-2^-2^-2^-5^-5^-5^-5^-3^-3^-3^-3^-3^-3^-3^-3^-3^-3^-3^-3^-5^-5^-5^-5^-5^-5^-5^-5^--| 
E|-3^-3^-3^-3^-0^-0^-0^-0^-3^-3^-3^-3^-1^-1^-1^-1^-1^-1^-1^-1^----------------------------------------| 

Interclude 
e|----------------------------------------------------------| 
B|----------------------------------------------------------| 
G|-5-5-5-5-2-2-2-2-3-3-3-3-5-5-5-5-7-7-7-7------------------| 
D|-5-5-5-5-2-2-2-2-3-3-3-3-5-5-5-5-7-7-7-7-5-5-5-5-5-5-5-5--| 
A|-3-3-3-3-0-0-0-0-3-3-3-3-3-3-3-3-5-5-5-5-5-5-5-5-5-5-5-5--| 
E|-----------------1-1-1-1-----------------3-3-3-3-3-3-3-3--| 

ORDER: 
Intro 
verse 
chorus 
verse2 
chorus 
solo (I have no idea) 
interclude (wha wha) 
chorus 
chorus 
chorus (fade out)
            

comments powered by Disqus
↑ Back to top | Vandals Tabs for Kokomo. Lyrics for acoustic guitar and electric guitar. Tablatures and chords are parodies/interpretations of the original songs. You may use it for private study, scholarship, research or language learning purposes only