» » »

Vandals, Join Us For Pong Tabs (ver.1)

Artists:  A B C D E F G H I J K L M N O P Q R S T U V W X Y Z # 

Join Us For Pong Tabs (ver.1)

Vandals Tabs
 Rating:
4.2/5 (5 votes)
Join Us For Pong lessons Tabs too difficult? Try these video lessons and learn fast
1
                Join Us For Pong by The vandals

Old school video games,yeah!

(/) Slide Up  (\) Slide Down  (h) Hammer On  (p) Pull Off  (b) Bend (r) Release (v) 
Vibrato (l) Let ring

intro
E|-----------------------------------------------|
B|-----------------------------------------------|
G|-1414----------------1414-----------1414-13-14-|
D|-1212-1212-1414------1212-1212-1414-1212-11-12-|
A|------1010-1212-1212------1010-1212------------|
E|----------------1010---------------------------|

main riff
E|-----------------------------------|
B|-----------------------------------|
G|-----------------------------------|
D|---55-77777------------------------|
A|-5-33-55555------------------------|
E|-3---------------------------------|
  |P.M|

riff2 - "because i have pong"
E|-----------------------------------|
B|-----------------------------------|
G|-7777------------------------------|
D|-5555-7----------------------------|
A|------5----------------------------|
E|-----------------------------------|

chorus "join us..."
E|-----------------------------------|
B|-----------------------------------|
G|-9999-7777-------------------------|
D|-7777-5555-------------------------|
A|-----------------------------------|
E|-----------------------------------|

"yea yea yea join us for pong!"
E|-----------------------------------|
B|-----------------------------------|
G|-----7-9---------------------------|
D|-----5-7-77-5-7--------------------|
A|-999-----55-3-5--------------------|
E|-777-------------------------------|

pre-solo - play 4x
E|-----------------------------------|
B|-----------------------------------|
G|-----------------------------------|
D|-7777-5b---------------------------|
A|-5555------------------------------|
E|-----------------------------------|

tiny solo - might not be right because of all the bending
E|-----------------------------------|
B|-----------------------------------|
G|-----------------------------------|
D|-4-----------4---------------------|
A|---5-7-5-3-5---5-------------------|
E|-----------------------------------|

It's pretty simple to figure out.

There is a lot of bending in the song
so it might not sound right at first because
there are two overdubbed guitars.
I believe this song is fully right.

Have fun!
            
Submit corrections

comments powered by Disqus
↑ Back to top | Vandals Tabs for Join Us For Pong. Lyrics for acoustic guitar and electric guitar. 1 Tablatures and chords are parodies/interpretations of the original songs. You may use it for private study, scholarship, research or language learning purposes only