» » »

Johnny Two Bags Tabs (ver.1)

Artists:  A B C D E F G H I J K L M N O P Q R S T U V W X Y Z # 

Johnny Two Bags Tabs (ver.1)

Vandals
Rating:
0/5 (0 votes)

Hard to play? Try these video lessons and learn fast.
                standard tuning eBGDAE 

note: Fairly straight forward song. i did not bother tabing the high pitches, cuz they 
are the same as the root notes 2 octaves higher, easy to figure out. Everyting else is 
here. The rythm for the verse is a bit different from a generic punk rythm so listen to 
figure it out. 

Intro X2 
|-----------------------------------------------------------------------------------------| 
|-----------------------------------------------------------------------------------------| 
|-----------------------------------------------------------------------------------------| 
|-----------------------------------------------------------------------------------------| 
|-5-5-5-5-5-5-5-5-5-5-5-5-5-5-5-5-5-5-5-5-5-----------------------------------------------| 
|-------------------------------------------5-5-5-5-5-5-5-5-5-5-5-5-5-5-5-3-3-3-3-3-3-3-3-| 
"Johnny Twobags.... 
pm....................................................................................... 

|---------------------------------------------| 
|---------------------------------------------| 
|---------------------------------------------| 
|---------------------------------------------| 
|-3-3-3-3-3-3-3-3-5-5-5-5-5-5-5-5-5-5-5-5-5-5-| 
|---------------------------------------------| 
pm........................................... 

Play this over the second time 
|----------------------------------------------| 
|----------------------------------------------| 
|-7-||-7-7-||----------------------------------| 
|-7-||-7-7-||-7-7-||-5---------7-7-7-7-7-7-7-7-| 
|-5-||-5-5-||-7-7-||-5---------7-7-7-7-7-7-7-7-| 
|-------------5-5-||-3---------5-5-5-5-5-5-5-5-| 

Verse X2 
|----------------------------------------------------| 
|----------------------------------------------------| 
|-7--7--7--7--7--7--7-7-7-7-7--7--7--7--7--7-7-7-7-7-| 
|-7--7--7--7--7--7--7-7-7-7-7--7--7--7--7--7-7-7-7-7-| 
|-5--5--5--5--5--5--5-5-5-5-5--5--5--5--5--5-5-5-5-5-| 
|----------------------------------------------------| 

|---------------------------------------------------| 
|---------------------------------------------------| 
|---------------------------------------------------| 
|-7--7--7--7--7--7-7-7-7--5--5--5--5--5--5--5-5-5-5-| 
|-7--7--7--7--7--7-7-7-7--5--5--5--5--5--5--5-5-5-5-| 
|-5--5--5--5--5--5-5-5-5--3--3--3--3--3--3--3-3-3-3-| 

|------------------------| 
|------------------------| 
|------------------------| 
|-7--7--7--7--7--7-7-7-7-| 
|-7--7--7--7--7--7-7-7-7-| 
|-5--5--5--5--5--5-5-5-5-| 

Chorus X1 
|---------------------| 
|---------------------| 
|---------------7-----| 
|-5------7------7-X18-| 
|-5-X36--7-X36--5-----| 
|-3------5------------| 


then Verse X2 
then Chorus X1 

Bridge 1 X1 
|------------------------------------------------------------| 
|------------------------------------------------------------| 
|-7--7-7--7-7-7-----------------7--7-7--7-7-7----------------| 
|-7--7-7--7-7-7--5--5-5--5-5-5--7--7-7--7-7-7--7--7-7--7-7-7-| 
|-5--5-5--5-5-5--5--5-5--5-5-5--5--5-5--5-5-5--7--7-7--7-7-7-| 
|----------------3--3-3--3-3-3-----------------5--5-5--5-5-5-| 

|--------------------------------------------------------------------| 
|--------------------------------------------------------------------| 
|-7--7-7--7-7-7------------------------------------------------------| 
|-7--7-7--7-7-7--5--5-5--5-5-5--5--5-5--5-5-5--7-7--7-7--7-7--7-7--7-| 
|-5--5-5--5-5-5--5--5-5--5-5-5--5--5-5--5-5-5--7-7--7-7--7-7--7-7--7-| 
|----------------3--3-3--3-3-3--3--3-3--3-3-3--5-5--5-5--5-5--5-5--5-| 

Bridge 2 X1 
|-----------------------------------------------------| 
|-----------------------------------------------------| 
|-7---------7-----------------------------------------| 
|-7----5----7----7----7-7-7-7-7-7-7-7-7-7-7-7-7-7-7-7-| 
|-5----5----5----7----7-7-7-7-7-7-7-7-7-7-7-7-7-7-7-7-| 
|------3---------5----5-5-5-5-5-5-5-5-5-5-5-5-5-5-5-5-| 

then Intro X1 
then Verse X1 
then chorus X1 
then Bridge 1 X2
            
Hard to play? Try these video lessons and learn fast. | Correct




comments powered by Disqus
↑ Back to top | Tablatures and chords are parodies/interpretations of the original songs. You may use it for private study, scholarship, research or language learning purposes only