» » »

Vandals, Jackass Tabs (ver.2)

Artists:  A B C D E F G H I J K L M N O P Q R S T U V W X Y Z # 

Jackass Tabs (ver.2)

Vandals Tabs
 Rating:
4/5 (4 votes)
Jackass lessons Tabs too difficult? Try these video lessons and learn fast
1
                This song is awesome , & This tab should be completly correct , i havent gotten the 
minoradjustments,
i also put time, so it might help you a bit moree
Standard Tuning E A D G B e
(0:00)
I transcribed the bass into guitar
1---------------------------------------------------------------------------|
2---------------------------------------------------------------------------|
3-------------------------------------------------------REPEAT THIS 4x------|
4---------------------------------------------------------------------------|
5--3-2-3--3-2-3--3-2-3--7-10-10-7-8-7---------------------------------------|
6---------------------------------------------------------------------------|
       Your on tour, I'm alone
       Wonder just what you did with your phone
       Try Usin' It, I'm losing it
       I never thought i'd lose you this way
(0:28)
1--------------------------------------------------------------------------------------------------------------------------------|
2--------------------------------------------------------------------------------------------------------------------------------|
3-----------------------------------------------------------------Repeat x2 4--5-5-5-5-5-5-5-5------------------5-5-5-5-5-5-5-5--|
5--3-3-3-3-3-3-3-3--3-3-3-3-3-3-3-3-3-3-3-3-3-3-3-3-5-5-5-5-5-5-5-5--------------------------------------------------------------|
6-------------------1-1-1-1-1-1-1-1-----------------3-3-3-3-3-3-3-3--------------------------------------------------------------|
(0:42)
1----------------------------------------------------------------------------|
2----------------------------------------------------------------------------|
3----------------------------------------------------------------------------|
4----5-5-------5-5-------------------------------------------------Repeat----| x2
5----3-3--3-3--3-3--5-5-5-5--------------------------------------------------|
6---------1-1-------3-3-3-3--------------------------------------------------|
      Quit the band, Get off stage
      Come back home, Start acting your age
      Look At me, Look At Us
      I just found out I'm not allowed on your bus
(0:56)
1---------------------------------------------------------------------------|
2---------------------------------------------------------------------------|
3---------------------------------------------------------------------------|
4----------------------------------5-5-5-5-5-5-5-5---------------Repeat x2--|
5-7-7-7-7-7-7-7-7--3-3-3-3-3-3-3-3-3-3-3-3-3-3-3-3-5-5-5-5-5-5-5-5----------|
6-5-5-5-5-5-5-5-5--1-1-1-1-1-1-1-1-----------------3-3-3-3-3-3-3-3----------|
      Keep Playin'. I'll stay in
      I can't see myself sayin'
      Keep Playin'. I'll stayin. I'll be Ok
(1:10)
1---------------------------------------------------------------------------|
2---------------------------------------------------------------------------|
3---------------------------------------------------------------------------|
4---------10-10-10--5-5-5---------------------------------------Repeat x2---|
5---7-7-7-8--8--8---3-3-3--5-5-5--------------------------------------------|
6---5-5-5------------------3-3-3--------------------------------------------|

      Chorus: Well it was cute at the party at the lake
              But haulin your gear is more than I can take
              You said this little band thing wouldn't last
              Guess im just a jackass
(1:17)
1---------------------------------------------------------------------------|
2---------------------------------------------------------------------------|
3---------------------------------------------------------------------------|
4---------------------------------------------------------------------------|
5--7-7-7-7-7-7-7-7--3-3-3-3-3-3-3-3--5-5-5-5-5-5-5-5------------------------|
6--5-5-5-5-5-5-5-5--1-1-1-1-1-1-1-1--3-3-3-3-3-3-3-3------------------------|
(1:24)
1---------------------------------------------------------------------------|
2---------------------------------------------------------------------------|
3---------------------------------------------------------------------------|
4---5-5-5-5-5-5-5-5------------------5-5-5-5-5-5-5-5----------Repeat x2-----|
5---3-3-3-3-3-3-3-3--3-3-3-3-3-3-3-3-3-3-3-3-3-3-3-3------------------------|
6--------------------1-1-1-1-1-1-1-1----------------------------------------|
(1:38)
1---------------------------------------------------------------------------|
2---------------------------------------------------------------------------|
3----------------------------------------------------------------Repeat x2--|
4--5-5------5-5-------------------------------------------------------------|
5--3-3-3-3--3-3-5-5-5-5-----------------------------------------------------|
6------1-1------3-3-3-3-----------------------------------------------------|
       Stuck Outside , got no pass
       You happy now ? You made me feel like an ass
       with you up there, and me up here
       Some guy told me to stay away from your beer
(1:52)
1---------------------------------------------------------------------------|
2---------------------------------------------------------------------------|
3----------------------------------------------------------------Repeat x2--|
4-----------------------------------5-5-5-5-5-5-5-5-------------------------|
5--7-7-7-7-7-7-7-7--3-3-3-3-3-3-3-3-3-3-3-3-3-3-3-3-5-5-5-5-5-5-5-5---------|
6--5-5-5-5-5-5-5-5--1-1-1-1-1-1-1-1-----------------3-3-3-3-3-3-3-3---------|

      Keep Playin. I'll stay in
      I cant see myself sayin
      Keep playin .I'll stay in.I'll be Ok
(2:06)
1---------------------------------------------------------------------------|
2---------------------------------------------------------------------------|
3-----------------------------------------------------------------Repeat x2-|
4--------10-10-10--5-5-5----------------------------------------------------|
5--7-7-7-8--8--8---3-3-3--5-5-5---------------------------------------------|
6--5-5-5------------------3-3-3---------------------------------------------|
      Well it was cute at the party at the lake
      But haulin your gear is more than I can take
      You said this little band thing wouldnt last
      Guess Im just a jackass
(2:13)
1---------------------------------------------------------------------------|
2---------------------------------------------------------------------------|
3---------------------------------------------------------------------------|
4---------------------------------------------------------------------------|
5-7-7-7-7-7-7-7-7--3-3-3-3-3-3-3-3--5-5-5-5-5-5-5-5-------------------------|
6-5-5-5-5-5-5-5-5--1-1-1-1-1-1-1-1--3-3-3-3-3-3-3-3-------------------------|
(2:20)
1---------------------------------------------------------------------------|
2---------------------------------------------------------------------------|
3---------------------------------------------------------------------------|
4-5-5-5-5-5-5-5-5-----------------5-5-5-5-5-5-5-5----------------Repeat x2--|
5-3-3-3-3-3-3-3-3-3-3-3-3-3-3-3-3-3-3-3-3-3-3-3-3---------------------------|
6-----------------1-1-1-1-1-1-1-1-------------------------------------------|
      Well it was cute at the party at the lake
      But haulin your gear is more than I can take
      You said this little band thing wouldnt last
      Guess Im just a jackass
(2:33)
1---------------------------------------------------------------------------|
2---------------------------------------------------------------------------|
3---------------------------------------------------------------------------|
4--------10-10-10--5-5-5----------------------------------------------------|
5--7-7-7--8--8--8--3-3-3--5-5-5---------------------------------------------|
6--5-5-5------------------3-3-3---------------------------------------------|
(2:41)
1---------------------------------------------------------------------------|
2---------------------------------------------------------------------------|
3---------------------------------------------------------------------------|
4---------------------------------------------------------------------------|
5-7-7-7-7-7-7-7-7--3-3-3-3-3-3-3-3--5-5-5-5-5-5-5-5-------------------------|
6-5-5-5-5-5-5-5-5--1-1-1-1-1-1-1-1--3-3-3-3-3-3-3-3-------------------------|
         I GUESS IM A BIG JACKASS
         I GUESS IM A BIG JACKASS

HAVENT GOTTEN TO THE ENDING BUT I HOPE THIS WILL GUIDE YOU!
 Greg Sacco
            
Submit corrections

comments powered by Disqus
↑ Back to top | Vandals Tabs for Jackass. Lyrics for acoustic guitar and electric guitar. 1 Tablatures and chords are parodies/interpretations of the original songs. You may use it for private study, scholarship, research or language learning purposes only