» » »

Vandals, I've Got An Ape Drape Bass tabs (ver.1)

Artists:  A B C D E F G H I J K L M N O P Q R S T U V W X Y Z # 

I've Got An Ape Drape Bass tabs (ver.1)

Vandals Tabs
 Rating:
4/5 (4 votes)
I've Got An Ape Drape lessons Tabs too difficult? Try these video lessons and learn fast
1
                Main Riff  x1(I've got an ape drape yes i do...)
G|----------------------------------------------------------------------|
D|----020--------------020--02-0000-------------------------------------|
A|333----3-03------333----3-------------020------2-222-22222222-02-3333-|
E|------------3333------------------333----3-333------------------------|

Verse (very fast)  x1
G|-----------------------------------------------|
D|----2>--3>--2>------00-22-00----22-00000000----|
A|3>--------------3>-----------33----------------|
E|--------------------------------------------3>-|

G|----------------------------------------------------|
D|----2>--3>--2>--3333------2222------33----22--------|
A|3>-------------------5555------3333----55----55-3>--|
E|----------------------------------------------------|

Main Riff  x1

Verse  x1

Main Riff  x1

Bass solo
G|555-7975--5-------555-7975-79-7-777--------------4444-44444444-2-4-5-555-|
D|---------7--5-555-------------------555-7975-555-------------------------|
A|-------------------------------------------------------------------------|
E|-------------------------------------------------------------------------|

Bridge  x1(its short on front and long at back....)
G|5>--------10>----------------------|
D|-----------------------------------|
A|-----------------3>----------3>----|
E|-----------------------3>----------|

G|----5\----5579597--5579597-|
D|---------------------------|
A|3\-------------------------|
E|---------------------------|

Main Riff  x1

Verse  x1

Main Riff  x1

Bass solo  x1

Main Riff  x2

Bass solo  x1

Main Riff  x1

End With
G|5~----5\(pop)-|
D|--------------|
A|--------------|
E|--------------|

Thats it. Very fun song to play. Great band. Please rate and comment or correct. 
more tabs on the way.
            
Submit corrections

comments powered by Disqus
↑ Back to top | Vandals Bass for I've Got An Ape Drape. Lyrics for acoustic guitar and electric guitar. 1 Tablatures and chords are parodies/interpretations of the original songs. You may use it for private study, scholarship, research or language learning purposes only