» » »

I'm Becoming You Tabs (ver.1)

Artists:  A B C D E F G H I J K L M N O P Q R S T U V W X Y Z # 

I'm Becoming You Tabs (ver.1)

Vandals
Rating:
0/5 (0 votes)

Hard to play? Try these video lessons and learn fast.
                
=slide       h= hammer on     pm=pam mute 
--------------------------------
---------------------------------
5555----------77777--------
5555---3333---77777---5555
3333---3333---55555---5555
-------1111-----------3333  

pm--------------------------------


5555----------77777----------------------------555555555555-5-5-5-5-5-5-5-5-5-
5555---3333---77777---5555---------------------555555555555-5-5-5-5-5-5-5-5-5-
3333---3333---55557---5555---------------------333333333333-3-3-3-3-3-3-3-3-3-      
-------1111-----------3333---x a few times------------------------------------
with distortion


-----------------------------------------------
--------------------------6665555--------------
--11h12------9----7-6-----7776665--------------
-----------------------------------------------
-----------------------------------------------
-----------------------------------------------

------------------------------------------------
------------------------------------------------
------------------------------------------------
10----------9-7-6-55555555-77777777-333333------
10----------9-7-6-55555555-77777777-333333------
-8 x sum----7-5-4-33333333-55555555-111111------



--------------------------------------------------
--------------------------------------------------
------------------------5-------555555555555------
------------------------5-------555555555555------
---5-7--0---------------3-------333333333333------
-7----------7-8-9-10------------------------------


Bridge
-------------------------------------------------------
-------------------------------------------------------
-55>--10----------8----------------6-----------------7-
-55>--10----------8----------------6-----------------7-
-33>---8x a few---6x a few more----4x even more------5-for a bit more
-------------------------------------------------------

-------------------------
11---9------11---9-------
---------9-----------9---
-------------------------
-------------------------
-------------------------
pm........................
thats the main parts so play them and tell me if they are *** and give me a better way
2 play it cause thats ma first tab right thare^^^ keep the peace.
            
Hard to play? Try these video lessons and learn fast. | Correct




comments powered by Disqus
↑ Back to top | Tablatures and chords are parodies/interpretations of the original songs. You may use it for private study, scholarship, research or language learning purposes only