» » »

Vandals, I Know Huh Tabs (ver.1)

Artists:  A B C D E F G H I J K L M N O P Q R S T U V W X Y Z # 

I Know Huh Tabs (ver.1)

Vandals Tabs
Rating:
0/5 (0 votes)
Hard to play? Try these video lessons and learn fast.
                I Know, Huh by The vandals

Awesome rythm and accordian ;)

(/) Slide Up  (\) Slide Down  (h) Hammer On  (p) Pull Off  (b) Bend (r) Release (v) 
Vibrato (l) Let ring

kinda-intro - its the part over the intro accordian,palm muted
E|-------------14-17--15-14-15-14----------|
B|-15-15-15-15--------------------17-15-15-|
G||play this 3x----|-----------------------|
D|-----------------------------------------|
A|-----------------------------------------|
E|-----------------------------------------|

the intro/solo
E|-----------------------------------|
B|-----------------------------------|
G|------7-10--8-7-8-7----------------|
D|-7777---------------9-7l-----------|
A|-|play-3x-|------------------------|
E|-----------------------------------|

riff1 - palm muted
E|-----------------------------------|
B|-----------------------------------|
G|-----------------------------------|
D|-77777-----------------------------|
A|-55555-99999-77777-----------------|
E|-------77777-55555-----------------|

"not from the same neighborhood..."
E|-----------------------------------|
B|-----------------------------------|
G|-----------------------------------|
D|-----------------------------------|
A|-77777777-555555-777777------------|
E|-55555555-333333-555555------------|

chorus "sanda i know huh..."
E|-----------------------------------|
B|-----------------------------------|
G|-----------------------------------|
D|-77-77-77-77-----------------------|
A|-55-55-55-55-77-77-55-77-----------|
E|-------------55-55-33-55-----------|

"and when we dance..."
E|--------------------------------------------|
B|--------------------------------------------|
G|-------------------------77777--------------|
D|-------77777-------77777-55555-77777--------|
A|-77777-55555-77777-55555-------55555-77777--|
E|-55555-------55555-------------------55555--|

E|-----------------------------------|
B|-----------------------------------|
G|-----------------------------------|
D|-7---7---7---7---------------------|
A|-5-7-5-7-5-7-5---------------------|
E|---5---5---5-----------------------|

At the end of the song,just play chorus behind the accordian.
This song is cool, I know, huh.

Have fun!
            

comments powered by Disqus
↑ Back to top | Vandals Tabs for I Know Huh. Lyrics for acoustic guitar and electric guitar. Tablatures and chords are parodies/interpretations of the original songs. You may use it for private study, scholarship, research or language learning purposes only