» » »

An Idea For A Movie Tabs (ver.2)

Artists:  A B C D E F G H I J K L M N O P Q R S T U V W X Y Z # 

An Idea For A Movie Tabs (ver.2)

Vandals
Rating:
4/5 (1 vote)

Hard to play? Try these video lessons and learn fast.
                There are only a few tabs on this site for this song so i decided to make one myself to
see how it gets rated. I'm not going to boast that i haven't seen any right tabs because

Any way this is how it goes.

Standard tuning

Intro/verse:

   e---------------------------------------------------|
   B---------------------------------------------------|
   G--------------------------6------7------9----------|
   D-----7------2------4------6------7------9--7-7-7-7-|
   A-----7------2------4--4-4-4--5-5-5--7-7-7--7-7-7-7-|
   E-5-5-5--0-0-0--2-2-2-----------------------5-5-5-5-|
p.m.[===]   [==]   [==]   [==]   [==]   [==]


Now heres that solo part in the beginning and i just figured it out by ear so there
is no doubt that it could be wrong.

e-------------------------------------------------------|
B--------15p14h15h17-14---------------------------------|
G-14----------------------------------------------------|
D---14-----------------11-12p11h12h14-12-11-------------|
A-------------------------------------------12-------12-|
E----------------------------------------------14p12----|

and the second part

e-----------------------------------------|
B-----------------------------------------|
G-14-------14-16-18--19p18-16-14-16-16-14-|
D---14---16-------------------------------|
A-----------------------------------------|
E-----------------------------------------|

If you didn't see above, the verse is the same as the intro

Now, there are 2 parts in the chorus, the part where they go, "and they go on
adventures..." and the part where they go, "put a happy ending there and..."

Chorus part 1

e-------------------------------------------------|
B-------------------------------------------------|
G-7-7-7-7-9-9-9-9-----------------7-7-7-7-9-9-9-9-|
D-7-7-7-7-9-9-9-9-7-7-7-7-4-4-4-4-7-7-7-7-9-9-9-9-|
A-5-5-5-5-7-7-7-7-7-7-7-7-4-4-4-4-5-5-5-5-7-7-7-7-|
E-----------------5-5-5-5-2-2-2-2-----------------|

And part 2

e---------------------------------|
B---------------------------------|
G-----------------6-6-6-6-7-7-7-7-|
D-7-7-7-7-5-5-5-5-6-6-6-6-7-7-7-7-|   play this twice
A-7-7-7-7-5-5-5-5-4-4-4-4-5-5-5-5-|
E-5-5-5-5-3-3-3-3-----------------|

Then the solo is played again as well as the verse
the chorus is also played again only part 2 is played twice

and now the bridge where they sing, "i forgot one thing about the guy"

e-----------------------------------------------------------------|
B-----------------------------------------------------------------|
G-----------------7-7-7-7-7-7-7-7-----------------9-9-9-9-7-7-7-7-|
D-9-9-9-9-9-9-9-9-7-7-7-7-7-7-7-7-9-9-9-9-9-9-9-9-9-9-9-9-7-7-7-7-|
A-9-9-9-9-9-9-9-9-5-5-5-5-5-5-5-5-9-9-9-9-9-9-9-9-7-7-7-7-5-5-5-5-|
E-7-7-7-7-7-7-7-7-----------------7-7-7-7-7-7-7-7-----------------|

e-----------------------------------------------------------------|
B-----------------------------------------------------------------|
G-----------------7-7-7-7-7-7-7-7-9-9-9-9-9-9-9-9-9-9-9-9-9-9-9-9-|
D-9-9-9-9-9-9-9-9-7-7-7-7-7-7-7-7-9-9-9-9-9-9-9-9-9-9-9-9-9-9-9-9-|
A-9-9-9-9-9-9-9-9-5-5-5-5-5-5-5-5-7-7-7-7-7-7-7-7-7-7-7-7-7-7-7-7-|
E-7-7-7-7-7-7-7-7-------------------------------------------------|

then theres the bridge solo

e-------------------------------21-----------------------------|
B---------------------------------17------------14-------------|
G-14----------------------------------------------14------14~~-|
D---14----------------------------------------------14-11------|
A----------14h16---14---12-12------------12-12-----------------|
E--------------------------------------------------------------|


the last chorus is a little different. At the end of part 1 you have to palm mute the
last 16 times the chord is played (those last 16 times are up down strokes that are
really fast)

e-------------------------------------------------|
B-------------------------------------------------|
G-7-7-7-7-9-9-9-9-----------------7-7-7-7-9-9-9-9-|
D-7-7-7-7-9-9-9-9-7-7-7-7-4-4-4-4-7-7-7-7-9-9-9-9-|
A-5-5-5-5-7-7-7-7-7-7-7-7-4-4-4-4-5-5-5-5-7-7-7-7-|
E-----------------5-5-5-5-2-2-2-2-----------------|

   e---------------------------------|
   B---------------------------------|
   G-9-9-9-9-9-9-9-9-9-9-9-9-9-9-9-9-|
   D-9-9-9-9-9-9-9-9-9-9-9-9-9-9-9-9-|
   A-7-7-7-7-7-7-7-7-7-7-7-7-7-7-7-7-|
   E---------------------------------|
p.m. [==============================]

then play the 2nd part of the chorus twice and palm mute the notes on the second time

the outro solo goes like this

e--------------------------------------------------------|
B--------15p14h15h17-------------------------------------|
G-14-----------------------------------------------------|
D---14---------------11--11-12p11h12h14-12-11------------|
A-------------------------------------------12-------12--|
E----------------------------------------------14p12-----|

e----------------------------------------|
B-------14-------------------------------|
G-14------14--18-16-14-13-14-16-14-16-14-|
D---14-----------------------------------|
A----------------------------------------|
E----------------------------------------|

im not so sure about the last part but it seemed accurate to my ears.

i hope you feel this helps cause i worked hard on this and im only 13 so please contact
me if you need anything else tabbed

this is Jed signing off
            
Hard to play? Try these video lessons and learn fast. | Correct




comments powered by Disqus
↑ Back to top | Tablatures and chords are parodies/interpretations of the original songs. You may use it for private study, scholarship, research or language learning purposes only