» » »

Hungry For You Tabs (ver.1)

Artists:  A B C D E F G H I J K L M N O P Q R S T U V W X Y Z # 

Hungry For You Tabs (ver.1)

Vandals
Rating:
0/5 (0 votes)

Hard to play? Try these video lessons and learn fast.
                SLIDE: 
D---------- 
A-12/-(0)-- 
E---------- 

VERSE: 
e-7-7-7-7-7-7-7-7------------------------------------- 
B-8-8-8-8-8-8-8-8------------------------------------- 
G-9-9-9-9-9-9-9-9------------------------------------- 
D-9-9-9-9-9-9-9-9--9-9/-10--9-9/-10--9-9/-10--9-9/-10- 
A-7-7-7-7-7-7-7-7--9-9/-10--9-9/-10--9-9/-10--9-9/-10- 
E------------------7-7/-8---7-7/-8---7-7/-8---7-7/-8-- 

CHORUS: 
e--------------------------------------- 
B---------8-8-8-8---------8/-11/-10/-9-- 
G-8-8-8-8-9-9-9-9-8-8-8-8-9/-12/-11/-10- 
D-9-9-9-9-9-9-9-9-9-9-9-9-9/-12/-11/-10- 
A-9-9-9-9-7-7-7-7-9-9-9-9-7/-10/-9-/-8-- 
E-7-7-7-7---------7-7-7-7--------------- 

SOLO: 
e------------------------------------------------------------ 
B------------------------------------------------------------ 
G------------------------------------------------------------ 
D------------------------------------------------------------ 
A-(0)/12-12-12-12-12-12-12-12~--15-15-15-13-15-13-13-15b-13~- 
E------------------------------------------------------------ 

e------------------------------------------------------------ 
B------------------------------------------------------------ 
G----------------------------------15-15-15-15-14-14-14-14--- 
D--15-13-15-13-15--15-15-13-15-13---------------------------- 
A------------------------------------------------------------ 
E------------------------------------------------------------ 

e--------------------------- 
B--------------------------- 
G--15-15-14-14-13-13-12-12-- 
D--------------------------- 
A--------------------------- 
E--------------------------- 

END RIFF: E, B, E, B, Gii/ F#ii/ Fii/ E 

ORDER: 
1. SLIDE 6. SOLO 
2. VERSE 5X 7. VERSE 5X 
3. CHORUS 2X 8. CHORUS 2X 
4. VERSE 4X 9. END RIFF 
5. CHORUS 2X
            
Hard to play? Try these video lessons and learn fast. | Correct




comments powered by Disqus
↑ Back to top | Tablatures and chords are parodies/interpretations of the original songs. You may use it for private study, scholarship, research or language learning purposes only