» » »

Girlfriend Tabs (ver.1)

Artists:  A B C D E F G H I J K L M N O P Q R S T U V W X Y Z # 

Girlfriend Tabs (ver.1)

Vandals
Rating:
0/5 (0 votes)

Hard to play? Try these video lessons and learn fast.
                THE VANDALS - MY GIRLFRIENDS DEAD 

This song is in drop d

Intro [0.00 - 0.08]

e|----|
B|----|
G|----|
D|--3-| x25
A|1---|
D|----|

intro (whistling)

G|10--8-7-5-3~| three times

Verse [0.08 - 0.19] 

e|----------------------------------|
B|----------------------------------|
G|----------------------------------|
D|3-----------------------------3---|
A|1-x8-3----5----0----1----3----1-x8|
D|-----3-x8-5-x8-0-x8-1-x8-3-x8-----| 

chorus [0.19 - 0.28]

e|----------------------|
B|----------------------|
G|----------------------|
D|----------------------|
A|1-----3-----8---------| 
D|1-x8--3-x8--8 let ring| 

Verse [0.30 - 0.42]

e|----------------------------------|
B|----------------------------------|
G|----------------------------------|
D|3-----------------------------3---|
A|1-x8-3----5----0----1----3----1-x8|
D|-----3-x8-5-x8-0-x8-1-x8-3-x8-----| 

chorus [0.42 - 0.51]

e|----------------|
B|----------------|
G|----------------|
D|----------------|
A|1-----3-----8---| 
D|1-x8--3-x8--8 x8| 

verse [0.52 - 1.04]

e|----------------------------------|
B|----------------------------------|
G|----------------------------------|
D|3-----------------------------3---|
A|1-x8-3----5----0----1----3----1-x8|
D|-----3-x8-5-x8-0-x8-1-x8-3-x8-----| 

chorus [1.05 - 1.15]

e|----------------|
B|----------------|
G|----------------|
D|----------------|
A|1-----3-----8---| 
D|1-x8--3-x8--8 x8| 

bridge [1.16 - 1.40]

e|----------------------------------------------------------------|
B|----------------------------------------------------------------|
G|--------7-7-7-7---------7-7-7-7---------------------------------|
D|--------7-7-7-7---------7-7-7-7---------------------------------|
A|5-5-5-5-5-5-5-5-5-5-5-5-5-5-5-5-1-1-1-1-3-3-3-3-8-8-8-8-8-8-8-8-|
D|5-5-5-5---------5-5-5-5---------1-1-1-1-3-3-3-3-8-8-8-8-8-8-8-8-|  played twice


e|----------------|
B|----------------|
G|----------------|
D|----------------|
A|1-----3-----8---| 
D|1-x8--3-x8--8 x8| 


middle bit

e|----|
B|----|
G|----|
D|--3-| x12
A|1---|
D|----|

(whistling bitty again)

G|10--8-7-5-3~| three times

e|----------------------------------|
B|----------------------------------|
G|----------------------------------|
D|3-----------------------------3---|
A|1-x8-3----5----0----1----3----1-x8|
D|-----3-x8-5-x8-0-x8-1-x8-3-x8-----|
            
Hard to play? Try these video lessons and learn fast. | Correct




comments powered by Disqus
↑ Back to top | Tablatures and chords are parodies/interpretations of the original songs. You may use it for private study, scholarship, research or language learning purposes only