» » »

Vandals, Designed By Satan Tabs (ver.1)

Artists:  A B C D E F G H I J K L M N O P Q R S T U V W X Y Z # 

Designed By Satan Tabs (ver.1)

Vandals Tabs
Rating:
0/5 (0 votes)
Hard to play? Try these video lessons and learn fast.
                Designed by Satan by The vandals

Great song from a great album

(/) Slide Up  (\) Slide Down  (h) Hammer On  (p) Pull Off  (b) Bend (r) Release (v) 
Vibrato (l) Let ring

intro - repeat this a bit
E|-----------------------------------|
B|-----------------------------------|
G|-----------------------------------|
D|-----------------------------------|
A|-10--10---10---10------------------|
E|---8----8----8----8----------------|

riff1
E|----------------------------------------|
B|----------------------------------------|
G|----------------------------------------|
D|--------------------1010-9-7-1010-9-7-9-|
A|-10-10101010-7-7777--8-8-7-5--8-8-7-5-7-|
E|--8--8-8-8-8-5-5555---------------------|

E|--------------------------------------|
B|--------------------------------------|
G|--------------------------------------|
D|--------------------10101010-12121212-|
A|-10-10101010-7-7777--8-8-8-8-10101010-|
E|--8--8-8-8-8-5-5555-------------------|

interlude/chorus - the x'es mark just putting
fingers on the string and not pressing down and playing
E|-----------------------------------|
B|-----------------------------------|
G|-----------------------------------|
D|-----------------------------------|
A|-10101010-xxxx-10101010-xxxx-------|
E|--8-8-8-8-xxxx--8-8-8-8-xxxx-------|

riff2
E|-----------------------------------|
B|-----------------------------------|
G|-----------------------------------|
D|----------9999-10101010-12121212---|
A|-10101010-7777--8-8-8-8-10101010---|
E|--8-8-8-8--------------------------|

prechorus
E|-----------------------------------|
B|-----------------------------------|
G|-----------------------------------|
D|-10-10-10-10-10-10-1212121212------|
A|--8--8--8--8--8--8-1010101010------|
E|-----------------------------------|

Riffs designed by satan, totally fun.

Have fun!
            

comments powered by Disqus
↑ Back to top | Vandals Tabs for Designed By Satan. Lyrics for acoustic guitar and electric guitar. Tablatures and chords are parodies/interpretations of the original songs. You may use it for private study, scholarship, research or language learning purposes only