» » »

Dance Of The Sugarplum Fairies Tabs (ver.1)

Artists:  A B C D E F G H I J K L M N O P Q R S T U V W X Y Z # 

Dance Of The Sugarplum Fairies Tabs (ver.1)

Vandals
Rating:
0/5 (0 votes)

Hard to play? Try these video lessons and learn fast.
                ----------------------------------------------------------------------- 
            DANCE OF THE SUGARPLUM FAIRIES – THE VANDALS 
----------------------------------------------------------------------- 

Tuning: Standard (E-A-D-G-B-e)

I DON’T KNOW IF ITS 100% RIGHT, I FOUND ON MXTABS, BEFORE IT WAS SHUT DOWN
DUE TO THE MPA, BUT IT WAS UPSIDE DOWN SO I RE-TABBED IT RIGHT-SIDE UP.

Intro:
e|--------------------------------| 
B|--3--4--5--3-4-5--3-4-5-6-7-----| 
G|--2--3--4--2-3-4--4-3-4-5-6-----| 
D|--3--4--5--3-4-5--3-4-5-6-7-----| 
A|--------------------------------| 
E|--------------------------------|

Part 1:

e|------------------------------------------------------------| 
B|------------------------------------------------------------| 
G|--9-9--12-11-12-11-7-9---7-7-7--6-6-6--5-5-5--4-5-4-5-4-----| 
D|-------------------------7-7-7--6-6-6--5-5-5--4-5-4-5-4-----| (x2)
A|--7-7--10-9--10-9--5-7---5-5-5--4-4-4--3-3-3--2-3-2-3-2-----| 
E|------------------------------------------------------------|

e|-------------------------------------------------------------| 
B|-------------------------------------------------------------| 
G|-------------------------------------------------------------| 
D|------------------10-9---------------------------------------| 
A|---7-7--10-9-10-9------10---9-9-9--7-7-7--6-9-7-9-6----------| 
E|-------------------------------------------------------------|

Part 2:
e|------------------------------------------------------------| 
B|------------------------------------------------------------| 
G|--9-9--12-11-12-11-7-9---7-7-7--6-6-6--5-5-5--4-5-4-5-4-----| 
D|-------------------------7-7-7--6-6-6--5-5-5--4-5-4-5-4-----|
A|--7-7--10-9--10-9--5-7---5-5-5--4-4-4--3-3-3--2-3-2-3-2-----| 
E|------------------------------------------------------------|

e|-------------------------------------------------| 
B|-------------------------------------------------| 
G|----8-8-9-8---6-6-7-6---5-5-6-5---5-4-5-4--------| 
D|----------------------------------5-4-5-4--------| 
A|--7---------5---------4-----------3-2-3-2--------| 
E|-------------------------------------------------|

SKA PART (UPSTROKES)
e|----------------------------------------------------------| 
B|----------------------------------------------------------| 
G|--9-10--12--14--16---12--14--16------9-9-9-9--7-7-7-7-----| 
D|--9—10--12--14--16---12--14--16------9-9-9-9--7-7-7-7-----| 
A|--7--9--10--12--14---10--12--14------7-7-7-7--5-5-5-5-----| 
E|----------------------------------------------------------|



e|--------------------------------------------------------------------| 
B|--------------------------------------------------------------------| 
G|--9--11-12--14--16---12--14--16-----9----9----7----7----------------| 
D|--9--11-12--14--16---12--14--16------9---------7--------------------| 
A|--7--8--10--12--14---10--12--14---7---7-7----5--5-5-----------------| 
E|--------------------------------------------------------------------|


e|--------------------------------------------------------------------| 
B|--------------------------------------------------------------------| 
G|--44-55-66-7---55-66-77-8---66-77-88-99-1010-1111-1212-1313-14------| 
D|--44-55-66-7---55-66-77-8---66-77-88-99-1010-1111-1212-1313-14------| 
A|--22-33-44-5---33-44-55-6---44-55-66-77-8-8—-9-9—-1010-1111-12------| 
E|--------------------------------------------------------------------|

e|-------------------------| 
B|-------------------------| 
G|--14-16---16-17--17-19---| 
D|--14-16---16-17--17-19---| 
A|--12-14---14-15--15-17---| 
E|-------------------------|

REPEAT EVERYTHING (EXCEPT THE INTRO) AND PLAY THE FIRST LINE ONCE INSTEAD OF TWICE
            
Hard to play? Try these video lessons and learn fast. | Correct




comments powered by Disqus
↑ Back to top | Tablatures and chords are parodies/interpretations of the original songs. You may use it for private study, scholarship, research or language learning purposes only