» » »

Vandals, C-H-R-I-S-T-M-A-S Tabs (ver.1)

Artists:  A B C D E F G H I J K L M N O P Q R S T U V W X Y Z # 

C-H-R-I-S-T-M-A-S Tabs (ver.1)

Vandals Tabs
Rating:
0/5 (0 votes)
C-H-R-I-S-T-M-A-S lessons Tabs too difficult? Try these video lessons and learn fast
                intro 
e|---------------------------------------------------| 
B|---------------------------------------------------| 
G|-7--5--4--------------7--5--4----------------------| 
D|-7--5--4--7--5-5-5-5--7--5--4--7--5-5-5-5-5-5-5-5--| 
A|-5--3--2--7--5-5-5-5--5--3--2--7--5-5-5-5-5-5-5-5--| 
E|----------5--3-3-3-3-----------5--3-3-3-3-3-3-3-3--| 

verse (riff 1) 
e|----------------------------------------------------------------------| 
B|----------------------------------------------------------------------| 
G|------------------5-5-5-5-5-5-5-5-----------------------5-5--7-7-7-7--| 
D|-5-5-5-5-5-5-5-5--5-5-5-5-5-5-5-5--5-5-5-5-5-5-5-5-5-5--5-5--7-7-7-7--| 
A|-5-5-5-5-5-5-5-5--3-3-3-3-3-3-3-3--5-5-5-5-5-5-5-5-5-5--3-3--5-5-5-5--| 
E|-3-3-3-3-3-3-3-3-------------------3-3-3-3-3-3-3-3-3-3----------------| 

verse (riff 2) 
e|-------------------------------------------------------------------------| 
B|-------------------------------------------------------------------------| 
G|------------------5-5-5-5-5-5-5-5--7-7-7-7-7-7-7-7--7--5--4--------------| 
D|-5-5-5-5-5-5-5-5--5-5-5-5-5-5-5-5--7-7-7-7-7-7-7-7--7--5--4--7--5-5-5-5--| 
A|-5-5-5-5-5-5-5-5--3-3-3-3-3-3-3-3--5-5-5-5-5-5-5-5--5--3--2--7--5-5-5-5--| 
E|-3-3-3-3-3-3-3-3---------------------------------------------5--3-3-3-3--| 

verse (riff 3) 
e|------------------------------| 
B|------------------------------| 
G|-7-7-7-7-7-7-7-7--7--5--4-----| 
D|-7-7-7-7-7-7-7-7--7--5--4--7--| 
A|-5-5-5-5-5-5-5-5--5--3--2--7--| 
E|---------------------------5--| 

the verse is played in this order 
riff 1 
riff 2 
riff 1 
riff 1 
riff 2 
riff 3 

there is also a lead part in there... it seems to show up at the end of every 
four measures or so... but u're on your own to figure it out 

bridge 
e|---------------------------------------------------------------------------| 
B|---------------------------------------------------------------------------| 
G|------5-5-----------5-5-5-5----------------5-5-----------5-5-5-5-----------| 
D|-5-5--5-5--5-5-5-5--5-5-5-5--5-5-5-5--5-5--5-5--5-5-5-5--5-5-5-5--5-5-5-5--| 
A|-5-5--3-3--5-5-5-5--3-3-3-3--5-5-5-5--5-5--3-3--5-5-5-5--3-3-3-3--5-5-5-5--| 
E|-3-3-------3-3-3-3-----------3-3-3-3--3-3-------3-3-3-3-----------3-3-3-3--| 

outro 
e|-------------------------------------------------------------------------| 
B|-------------------------------------------------------------------------| 
G|-7-7-7-7--5-5-5-5--4-4-4-4-----------5-5-5-5--4-4-4-4--------------------| 
D|-7-7-7-7--5-5-5-5--4-4-4-4--7-7-7-7--5-5-5-5--4-4-4-4--7-7-7-7--5-5-5-5--| 
A|-5-5-5-5--3-3-3-3--2-2-2-2--7-7-7-7--3-3-3-3--2-2-2-2--7-7-7-7--5-5-5-5--| 
E|----------------------------5-5-5-5--------------------5-5-5-5--3-3-3-3--| 
play this three times and that's it 

it shouldn't be hard to follow... just play it exactly as i have it laid out... 
just intro-verse-bridge-outro...
            
Submit corrections

comments powered by Disqus
↑ Back to top | Vandals Tabs for C-H-R-I-S-T-M-A-S. Lyrics for acoustic guitar and electric guitar. Tablatures and chords are parodies/interpretations of the original songs. You may use it for private study, scholarship, research or language learning purposes only