» » »

Vandals, And Now We Dance Tabs (ver.1)

Artists:  A B C D E F G H I J K L M N O P Q R S T U V W X Y Z # 

And Now We Dance Tabs (ver.1)

Vandals Tabs
Rating:
0/5 (0 votes)
And Now We Dance lessons Tabs too difficult? Try these video lessons and learn fast
                standard tuning eBGDAE 

Legend: 
pm =palm mute 
|| =full mute 
~~~ =vibrato 
\ =slide down 

Intro X1 
|----------------| 
|----------------| 
|-11-11-14-14-14-| 
|-11-11-14-14-14-| 
|-9--9--12-12-12-| 
|----------------| 

Verse X2 
|---------------------------------------------- 
|---------------------------------------------- 
|-7--7-7-7--4-7--7-7-7--4-7--7-7-7--4-7--7-7-7- 
|-7--7-7-7--4-7--7-7-7--4-7--7-7-7--4-7--7-7-7- 
|-5--5-5-5--2-5--5-5-5--2-5--5-5-5--2-5--5-5-5- 
|---------------------------------------------- 
pm ..... ..... ..... ..... 

----------------------------------------| 
----------------------------------------| 
----------------------------------------| 
-4--4-4-4--7-4--4-4-4--7-4--4-4-4--7-||-| 
-4--4-4-4--7-4--4-4-4--7-4--4-4-4--7-||-| 
-2--2-2-2--5-2--2-2-2--5-2--2-2-2--5-||-| 
pm ..... ..... ..... 

Chorus X1 
|--------------------------------------------------------------- 
|--------------------------------------------------------------- 
|---------------7-7--7-7-7--7---------------11-11--11-11-11--11- 
|-9-9--9-9-9--9-7-7--7-7-7--7-5-5--5-5-5--5-11-11--11-11-11--11- 
|-9-9--9-9-9--9-5-5--5-5-5--5-5-5--5-5-5--5-9--9---9--9--9---9-- 
|-7-7--7-7-7--7---------------3-3--3-3-3--3-------------------- 

-------------------------------------------------------------| 
-------------------------------------------------------------| 
---------------7-7--7-7-7--7-12-12--12-12-12-12--11-||-11-||-| 
-9-9--9-9-9--9-7-7--7-7-7--7-12-12--12-12-12-12--11-||-11-||-| 
-9-9--9-9-9--9-5-5--5-5-5--5-10-10--10-10-10-10--9--||-9--||-| 
-7-7--7-7-7--7-----------------------------------------------| 

then Intro X1 

Bridge 1 X1 
|------------------------------------------| 
|------------------------------------------| 
|-7-7--4-4-4--7-7--4-4-4--7-7--4-4-4--9~~~-| 
|------------------------------------------| 
|-5-5--2-2-2--5-5--2-2-2--5-5--2-2-2-------| 
|------------------------------------------| 

then Verse X2 

At the end of the first Verse quickly play this little riff 
|-----------| 
|-----------| 
|-----------| 
|-----------| 
|-3\5-5-2-0-| 
|-----------| 

then Chorus X1 

Bridge 2 
|-------------------------------------------------------------------------------------------------- 
|-------------------------------------------------------------------------------------------------- 
|-7~~~--------------------------------------------------------------------------------------------- 
|-------9-9-9-9-9-9-9-9--7-6-5--9-9-9-9-9-9-9-9--12-11-10--9-9-9-9-9-9-9-9--7-6-5--9-9-9-9-9-9-9-9- 
|-------9-9-9-9-9-9-9-9---------9-9-9-9-9-9-9-9------------9-9-9-9-9-9-9-9---------9-9-9-9-9-9-9-9- 
|-------7-7-7-7-7-7-7-7---------7-7-7-7-7-7-7-7------------7-7-7-7-7-7-7-7---------7-7-7-7-7-7-7-7- 
pm ............... ............... ............... ............... 

--9-9-9-9-9-9-9-9--7-6-5--9-9-9-9-9-9-9-9--12-11-10--9-9-9-9-9-9-9-9--7-6-5- 
--9-9-9-9-9-9-9-9---------9-9-9-9-9-9-9-9------------9-9-9-9-9-9-9-9-------- 
--7-7-7-7-7-7-7-7---------7-7-7-7-7-7-7-7------------7-7-7-7-7-7-7-7-------- 
pm ............... ............... ............... 

---------------------------------------| 
---------------------------------------| 
-7-7--4-4-4--7-7--4-4-4--7-7--4-4-4-||-| 
------------------------------------||-| 
-5-5--2-2-2--5-5--2-2-2--5-5--2-2-2-||-| 
---------------------------------------| 

then Verse X2 
then Chorus X2 

end the first Chorus whith 2 intro riffs 

then Intro X1
            

comments powered by Disqus
↑ Back to top | Vandals Tabs for And Now We Dance. Lyrics for acoustic guitar and electric guitar. Tablatures and chords are parodies/interpretations of the original songs. You may use it for private study, scholarship, research or language learning purposes only