» » »

Time Goes By Tabs (ver.1)

Artists:  A B C D E F G H I J K L M N O P Q R S T U V W X Y Z # 

Time Goes By Tabs (ver.1)

Vamps
Rating:
1/5 (1 vote)

Tabs too difficult? Try these video lessons and learn fast.
                Este es mi 1º temita k subo ^^ 
espero que les uste....cualque cosa 


(intro 4x)
|------------------------||
|---0-----------0--------||
|-----0-----------0------||
|-------------------4----||
|-3-----(3)3-s5----------||
|------------------------||

|------------------------||
|---0-----------0--------||
|-----0-----------0------|| 2x
|-------------------4----||
|-3-----(3)3-s5----------||
|------------------------||
Do you remember that day?

|------------------------||
|---0-----------0--------||
|-----0-----------0------||2x
|-------------------4----||
|-3-----(3)3-s5----------||
|------------------------||
And the time goes by

|------------------------||
|---0-----------0--------||
|-----0-----------0------||2x
|-------------------4----||
|-3-----(3)3-s5----------||
|------------------------||
I am still alive now

Em
konna sekai de
Am              Em
Aa, kudarana sa ni
Am           Em    Am             Em
tsuba wo hai temo, mada hashireru sa
F
Lighting up my en-gine getting started
C     D         Em    C         D         Em
memagurushii ki setsu wo hateru made kake yuku
C      D         Em    C        D    Em
kokoro no oku de sotto anata wo omoi nagara

|------------------------||
|---0-----------0--------||
|-----0-----------0------||
|-------------------4----||
|-3-----(3)3-s5----------||
|------------------------||
Do you remember that day?

|------------------------||
|---0-----------0--------||
|-----0-----------0------||
|-------------------4----||
|-3-----(3)3-s5----------||
|------------------------||
mabushikute me wo fusai de mo

Em           Am   Em           Am
zanzou ga nokori, jama suru no sa
F
Like a sudden drop that falls on my heart
C   D      Em      C       D        Em
osaete ita omoi ga shunkan ni afure dasu
C    D          Em        C     D      Em
arayuru keshiki ga ima anata de ume tsukusu

(solo) C D G Em C D Em C

C   D           Em    C     D           Em
tomatta toki no mukou kawarazu mi tsume teru
C       D        Em
boku no itami wo tsutsumikomu you na
C       D         Em
sonna yawaraka na kimi ga suki datta
C     D         Em    C         D         Em
memagurushii ki setsu wo hateru made kake yuku
C      D         Em    C        D      Em
kokoro no oku de sotto anata wo omoi nagara
            
Tabs too difficult? Try these video lessons and learn fast.




comments powered by Disqus
↑ Back to top | Tablatures and chords are parodies/interpretations of the original songs. You may use it for private study, scholarship, research or language learning purposes only