» » »

Vamps, Sweet Dreams Tabs (ver.1)

Artists:  A B C D E F G H I J K L M N O P Q R S T U V W X Y Z # 

Sweet Dreams Tabs (ver.1)

Vamps Tabs
Rating:
0/5 (0 votes)
Sweet Dreams lessons Tabs too difficult? Try these video lessons and learn fast
                VAMPS - Sweet Dreams

Try not to confuse the piano with the guitar xP

-- Clean Guitar for verses and Chorus 
-- Distortion Guitar for Pre-Chorus and Solo



Verses (5x [1st time its the Intro]):
e|-------0--------0------0----0------|
B|-----0--------0--------0----0--0---|
G|---2--------2----------2----2----2-|
D|-2--------2------------2----2------|
A|-----------------------------------|
E|-----------------------------------|

Pre-Chorus:
e|--------------------|
B|--------------------|
G|-4--6--7----4--6--9-|
D|-4--6--7----4--6--9-|
A|-2--4--5----2--4--7-|
E|--------------------|

Chorus (3x):
e|-0-------------0-------------|
B|-0--0-------0--0--0-------0--|
G|-2----2---2----2----2---2----|
D|-2------2------3------3------|
A|-----------------------------|
E|-----------------------------|

e|-0-------------0-------------|
B|-0--0-------0--0-------------|
G|-2----2---2----2-------------|
D|-2------2------3-------------|
A|-----------------------------|
E|-----------------------------|

-Play Verses again-

-Play Pre-Chorus again-

-Play Chorus again-

Solo:
e|------15--15/19-19--20-------15--13-12-12--13-|
B|-/13--------------------/13-------------------|
G|----------------------------------------------|
D|----------------------------------------------|
A|----------------------------------------------|
E|----------------------------------------------|

e|-/15-13-12-13-15-15-13-12----12----15-13-12-13-15/19-17----17-15----|
B|--------------------------15----13----------------------17-------15-|
G|--------------------------------------------------------------------|
D|--------------------------------------------------------------------|
A|--------------------------------------------------------------------|
E|--------------------------------------------------------------------|

e|-13-12----15-13----17-15----19-17----20/-|
B|-------13-------15-------17-------19-----|
G|-----------------------------------------|
D|-----------------------------------------|
A|-----------------------------------------|
E|-----------------------------------------|

e|------------17-------(19/)-|
B|-17--19--21----------------|
G|---------------------------|
D|---------------------------|
A|---------------------------|
E|---------------------------|

-Play Chorus Again-
            
Submit corrections

comments powered by Disqus
↑ Back to top | Vamps Tabs for Sweet Dreams. Lyrics for acoustic guitar and electric guitar. Tablatures and chords are parodies/interpretations of the original songs. You may use it for private study, scholarship, research or language learning purposes only