» » »

Revolution Tabs (ver.1)

Artists:  A B C D E F G H I J K L M N O P Q R S T U V W X Y Z # 

Revolution Tabs (ver.1)

Vamps
Rating:
0/5 (0 votes)

Hard to play? Try these video lessons and learn fast.
                VAMPS - REVOLUTION

Tune: Drop D
Distortion

Intro/Verses (5x):
e|-------------------------|
B|-------------------------|
G|-------------------------|
D|-4--4--2-4--7-4--2--4-4--|
A|-4--4--2-4--7-4--2--4-4--|
D|-4--4--2-4--7-4--2--4-4--|

Between the 2nd and 3rd time do some "natural harmonics".
Between the 3rd the 4th and the 5th time just let "4" ring.

Pre-Chorus:
e|----------------|
B|----------------|
G|----------------|
D|-4--4--2-4--4---|
A|-4--4--2-4--4---|
D|-4--4--2-4--4---|

Chorus (4x):
e|----------4-----|
B|----------4-----|
G|-------4--4-----|
D|-4--2--4--------|
A|-4--2--2--------|
D|-4--2-----------|

-Repeat Intro/Verses-

-Repeat Chorus-

Bridge (8x):
e|-------------------|
B|-------------------|
G|-------------------|
D|-4-4--4-4--4--/7-7-|
A|-4-4--4-4--4--/7-7-|
D|-4-4--4-4--4--/7-7-|

-Repeat Intro/Verses-

-Repeat Chorus- 2x

-Repeat Intro/Verses-
            
Hard to play? Try these video lessons and learn fast. | Correct




comments powered by Disqus
↑ Back to top | Tablatures and chords are parodies/interpretations of the original songs. You may use it for private study, scholarship, research or language learning purposes only