» » »

Devil Side Tabs (ver.1)

Artists:  A B C D E F G H I J K L M N O P Q R S T U V W X Y Z # 

Devil Side Tabs (ver.1)

Vamps
Rating:
0/5 (0 votes)

Hard to play? Try these video lessons and learn fast.
                VAMPS - DEVIL SIDE

Tune: Drop D
Distortion with Delay


INTRO p1:

e|---------------------------------------------------|
B|---------------------------------------------------|
G|---------------------------------------------------|
D|-4-6-4-6-4-6--(delay)--x-x(6)-4-6-4-6-4-6--(delay)-|
A|-4-6-4-6-4-6-----------x-x(6)-4-6-4-6-4-6----------|
D|-4-6-4-6-4-6-----------x-x(6)-4-6-4-6-4-6----------|

INTRO p2:

e|-------------------------------------|
B|-------------------------------------|
G|--------------------------------6^-6-|
D|-4-6-4-6-4-6-4-6-4-6-4-6-4-6-4-------|
A|-4-6-4-6-4-6-4-6-4-6-4-6-4-6-4-------|
D|-4-6-4-6-4-6-4-6-4-6-4-6-4-6-4-------|

e|-----------------------------------|
B|-----------------------------------|
G|--------------------------------6^-|
D|-4-6-4-6-4-6-4-6-4-6-4-6-4-6-4-----|
A|-4-6-4-6-4-6-4-6-4-6-4-6-4-6-4-----|
D|-4-6-4-6-4-6-4-6-4-6-4-6-4-6-4-----|

VERSES:

Shake shake shake on the floor
Take take take take me lower
Loud loud loud beating rhythm
Hush Hush Hush keep it secret

e|--------------|
B|--------------|
G|-6-6--(delay)-|
D|-6-6----------|
A|--------------|
D|--------------|

Reckless without reason
Defenseless dive on the floor

e|--------------------|
B|--------------------|
G|--------------------|
D|-x(6)-x--x-x-x-x(6)-|
A|-x(6)-x--x-x-x-x(6)-|
D|-x(6)-x--x-x-x-x(6)-|

Baby ready set fly away
e|--------------------------------------------|
B|--------------------------------------------|
G|--------------------------------------------|
D|-x-(6)-6--x-(6)-6--x-(6)-6--x-x-(6)-6/7-8-8-|
A|-x-(6)-6--x-(6)-6--x-(6)-6--x-x-(6)-6/7-8-8-|
D|-x-(6)-6--x-(6)-6--x-(6)-6--x-x-(6)-6/7-8-8-|



CHORUS:

e|---------------------------------------------------------|
B|---------------------------------------------------------|
G|---------------------------------------------------------|
D|-11--11-11-11-11-6--6-6-6-6-4--4-4-4-4-8--8-(9)--(9)-(9)-|
A|-11--11-11-11-11-6--6-6-6-6-4--4-4-4-4-8--8-(9)--(9)-(9)-|
D|-11--11-11-11-11-6--6-6-6-6-4--4-4-4-4-8--8-(9)--(9)-(9)-|4x
   I'm in...       a trance   with...    you... For...
...get             Embrace our instinct.
   I want...       to see     your       other... 
   face            Kissing    your lips

e|-----------------------------|
B|-----------------------------|
G|-----------------------------|
D|-9-11-9-11-9-11-9-11-x-x-x-x-|
A|-9-11-9-11-9-11-9-11-x-x-x-x-|
D|-9-11-9-11-9-11-9-11-x-x-x-x-|3x
Calling for your

e|---------------------|
B|---------------------|
G|---------------------|
D|-9-11-9-11-9-11-9-11-|
A|-9-11-9-11-9-11-9-11-|
D|-9-11-9-11-9-11-9-11-|


e|-----------------------------|
B|-----------------------------|
G|-----------------------------|
D|-9-11-9-11-9-11-9-11-x-x-x-x-|
A|-9-11-9-11-9-11-9-11-x-x-x-x-|
D|-9-11-9-11-9-11-9-11-x-x-x-x-|3x


e|---------------------------------|
B|---------------------------------|
G|---------------------------------|
D|-9-11-9-11-9-11--11-11-9-9-6-6---|
A|-9-11-9-11-9-11--11-11-9-9-6-6---|
D|-9-11-9-11-9-11--11-11-9-9-6-6---|


-VERSES (Repeat)-


Come come come on you're thirsty


Shame Shame Shame don't be so shy
Right or wrong who decided?
Talk talk talk monsters talking here
Reckless without reason
Defenseless dive on the floor


Baby ready set fly away


-CHORUS (Repeat)-


SOLO (HYDE's Guitar, not KAZ's):
e|-----------------------------|
B|-----------------------------|
G|-----------------------------|
D|-9-11-9-11-9-11-9-11-x-x-x-x-|
A|-9-11-9-11-9-11-9-11-x-x-x-x-|
D|-9-11-9-11-9-11-9-11-x-x-x-x-|4x

e|---------------------------------|
B|---------------------------------|
G|---------------------------------|
D|-12-14-12-14-12-14-12-14-x-x-x-x-|
A|-12-14-12-14-12-14-12-14-x-x-x-x-|
D|-12-14-12-14-12-14-12-14-x-x-x-x-|3x

e|---------------------------------|
B|---------------------------------|
G|---------------------------------|
D|-13-15-13-15-13-15-13-15-x-x-x-x-|
A|-13-15-13-15-13-15-13-15-x-x-x-x-|
D|-13-15-13-15-13-15-13-15-x-x-x-x-|

-Repeat "Intro p2"-
Baby fly away from this world

e|---------|
B|---------|
G|---------|
D|-6/7-8-8-|
A|-6/7-8-8-|
D|-6/7-8-8-|

-Repeat Chorus "2x"-

e|-----------------------------|
B|-----------------------------|
G|-----------------------------|
D|-9-11-9-11-9-11-9-11-9-9-9-9-|
A|-9-11-9-11-9-11-9-11-9-9-9-9-|
D|-9-11-9-11-9-11-9-11-9-9-9-9-|
            
Hard to play? Try these video lessons and learn fast. | Correct




comments powered by Disqus
↑ Back to top | Tablatures and chords are parodies/interpretations of the original songs. You may use it for private study, scholarship, research or language learning purposes only