» » »

Vamps, Deep Red Tabs (ver.1)

Artists:  A B C D E F G H I J K L M N O P Q R S T U V W X Y Z # 

Deep Red Tabs (ver.1)

Vamps Tabs
 Rating:
4/5 (4 votes)
Deep Red lessons Tabs too difficult? Try these video lessons and learn fast
                VAMPS - DEEP RED


INTRO (Starting at 00:15):

* KAZ GUITAR
e|----------------10-9-7-6-7------------------10--9--7--10-9-7-6-7-----|
B|-11---9-12-11--------------9-11---9-12-11------------------------9---|
G|---------------------------------------------------------------------|
D|---------------------------------------------------------------------|
A|---------------------------------------------------------------------|
E|---------------------------------------------------------------------|2x

e|-7----7----7---6---6---6-\-|
B|---9----9----9---8---8---\-|
G|---------------------------|
D|---------------------------|
A|---------------------------|
E|---------------------------|


* HYDE GUITAR
(Play it allways Up)

e|---------------------------------------------------------------|
B|---------------------------------------------------------------|
G|--8--8--8--8--8-8-7--7--7--7--7-7-6--6--6--6--6-6-7--7--7--7---|
D|--x--x--x--x--x-x-x--x--x--x--x-x-x--x--x--x--x-x-x--x--x--x---|
A|--6--6--6--6--6-6-5--5--5--5--5-5-4--4--4--4--4-4-5--5--5--5---|
E|---------------------------------------------------------------|2x

VERSES:

The ruby glitters in deep red
te ni nareta yubisaki
nerai sadameru you ni

ginga wo tataeteru
yosou manazashi
Smell as dangerous as poison

e|--------------------13----12-\-|
B|-11^---16---15---------15------|
G|---------------15--------------|
D|-------------------------------|
A|-------------------------------|
E|-------------------------------|
	tsumetai kao to urahara

e|-----------------------|
B|-----------------------|
G|--7---7---7--8---------|
D|--x---x---x--x---------|
A|--5---5---5--6---------|
E|-----------------------|
  sugu  ni nusumaretai?


e|-------------|
B|-------------|
G|--------8-7--|
D|--7-6-7------|
A|-------------|
E|-------------|


CHORUS (2x) [KAZ Guitar]:

e|------|
B|-16---|
G|----13|
D|------|
A|------|
E|------|4x
Love to love in search of love

e|------|
B|-15---|
G|----13|
D|------|
A|------|
E|------|4x
osaerannai yoku no dorei / nisemono demo ii kara

e|------|
B|-16---|
G|----13|
D|------|
A|------|
E|------|4x
Deeper deepening going deep

e|------|
B|-13---|
G|----13|
D|------|
A|------|
E|------|3x

e|------|
B|-13-15|
G|------|
D|------|
A|------|
E|------|
haitoku ga tekido na supaisu / te ni irete mitai dake


-Repeat INTRO-


VERSES:

(Play "HYDE Guitar Intro" on these verses)

hodoketeku sekyuriti
kodou sae tokedash*te
sho-to shi sou na kankaku
Tickling breath and butterfly kiss
kangaezu honnou no
kanjiru hou he ugoite

e|--------------------13----12-\-|
B|-11^---16---15---------15------|
G|---------------15--------------|
D|-------------------------------|
A|-------------------------------|
E|-------------------------------|
	 yubisaki ga furetara

e|-----------------------|
B|-----------------------|
G|--7---7---7--8---------|
D|--x---x---x--x---------|
A|--5---5---5--6---------|
E|-----------------------|
  hibiite nariyamanai


e|-------------|
B|-------------|
G|--------8-7--|
D|--7-6-7------|
A|-------------|
E|-------------|


-Repeat CHORUS-


SOLO (2x):

e|-------------------------9-----9--12----11----|
B|-11--9--11--9--11--9--8-----8--------11----12-|
G|----------------------------------------------|
D|----------------------------------------------|
A|----------------------------------------------|
E|----------------------------------------------|

e|-------------------------9--------12----11----|
B|-11--9--11--9--11--9--8--------11----11----12-|
G|----------------------------------------------|
D|----------------------------------------------|
A|----------------------------------------------|
E|----------------------------------------------|


VERSES:
e|--------------------13----12-\-|
B|-11^---16---15---------15------|
G|---------------15--------------|
D|-------------------------------|
A|-------------------------------|
E|-------------------------------|
	 Time limited kizukanai...

e|-----------------------|
B|-----------------------|
G|--7---7---7--8---------|
D|--x---x---x--x---------|
A|--5---5---5--6---------|
E|-----------------------|
  yume wo miteitai kara?

e|--------------------13----12-\-|
B|-11^---16---15---------15------|
G|---------------15--------------|
D|-------------------------------|
A|-------------------------------|
E|-------------------------------|
	 Impossible escape soretomo...

e|-----------------------|
B|-----------------------|
G|--7---7---7--8---------|
D|--x---x---x--x---------|
A|--5---5---5--6---------|
E|-----------------------|
  aji wo shimeta kara?


e|-------------|
B|-------------|
G|--------8-7--|
D|--7-6-7------|
A|-------------|
E|-------------|

-Repeat CHORUS (4x)-


Lyrics for the last 2 Chorus:
Love to love in search of love
hi asobi ja naku nacchatte
Deeper deepening going deep
miirarete shimau deep red

Love to love in search of love
Love to love in search of love
Love to love in search of love
mou dasshutsu ha fukanou
            
Submit corrections

comments powered by Disqus
↑ Back to top | Vamps Tabs for Deep Red. Lyrics for acoustic guitar and electric guitar. Tablatures and chords are parodies/interpretations of the original songs. You may use it for private study, scholarship, research or language learning purposes only