» » »

Vampire Weekend, Ottoman Bass tabs (ver.1)

Artists:  A B C D E F G H I J K L M N O P Q R S T U V W X Y Z # 

Ottoman Bass tabs (ver.1)

Vampire Weekend Tabs
 Rating:
4/5 (4 votes)
Ottoman lessons Tabs too difficult? Try these video lessons and learn fast
                Bass Tab


Intro/verse1 
(0:09)

G:------------------------------------|
D:------------------------------------|
A:----------2---2-----2---2---5---5---| 
E:---5--5-----2---2-3---3---2---2-----|

Post Verse 2/ Verse2 

G:------------------------------------|
D:------------------------------------|              
A:----------------------5---5---------|
E:--5-5--7--2--7----3-3---5-----------|

Pre-Chorus

G:--#---------------------------------------------------------------|
D:--#---------------------------------------------------------------|
A:--#---------------------B-B-B-B-B-B-B-B\--------------------------|
E:--#--5-5-5-5-5-5-5-5-5/-------------------------------------------|
    R

Chorus

G:----------------2--------------------------------------------------|
D:------------2-4---5-5-5-5-5-5-5-5\---------------------------------|
A:--5-5-5-5-5-------------------------------------------B-B-B------4-|
E:------------------------------------5-5-5-5-5-5-5-5/-------5-5-5---|
                           
G:----------------2-------------------------------------------------2|
D:------------2-4---5-5-5-5-5-5-5-5\--------------4-2-------------2--|
A:--5-5-5-5-5---------------------------2-4---2-4-------2-4---2-4----|
E:------------------------------------5-----5---------5-----5--------|

G:----------------2-----------2-4------|
D:----2-4---2-4-5---5-4-2-4-5-----5----|
A:--5-----5----------------------------|
E:-------------------------------------|

--------------------------------2---------------2-----------2-4--------|
--------------4-2-------------2-----2-4---2-4-5---5-4-2-4-5-----5------|
----2-4---2-4-------2-4---2-4-----5-----5------------------------------|
--5-----5---------5-----5----------------------------------------------|

Outro

G:-----------------------------------------------------------|
D:--7-7--7-7-7--7-5-5--5-5-5--5-4-4-4-4-4-4/-9-9--9-9-9-9-9\-|
A:-----------------------------------------------------------|
E:-----------------------------------------------------------|

A=10
B=12
/=Slide Up
\=Slide Down
#=Rest

Intro/verse1
verse1
Post Verse2
Verse2
Rest
Pre-Chorus
Chorus
Verse3(Verse2 part)
Rest
Pre-Chorus
Chorus
Outro
            
Submit corrections

comments powered by Disqus
↑ Back to top | Vampire Weekend Bass for Ottoman. Lyrics for acoustic guitar and electric guitar. Tablatures and chords are parodies/interpretations of the original songs. You may use it for private study, scholarship, research or language learning purposes only