» » »

Vampire Weekend, Mansard Roof Tabs (ver.1)

Artists:  A B C D E F G H I J K L M N O P Q R S T U V W X Y Z # 

Mansard Roof Tabs (ver.1)

Vampire Weekend Tabs
 Rating:
4/5 (4 votes)
Mansard Roof lessons Tabs too difficult? Try these video lessons and learn fast
                
the other tab is fine.  This is a complete version.  The rhythm isn't too
hard to follow

Tablature for guitar + chords

Standard Tuning
Intro: F

	F
|--------1--------0-----------------------------------------------|
|-----------------------3---------1--3----------------3-----------|
|---------------------------------------------2---------------2---|
|-----------------------------------------------------------------|
|-----------------------------------------------------------------|
|-----------------------------------------------------------------|
         I       see    a           mansard   roof   through  the
	The       Argentines         collapse        in      defeat

	F
|-----------------------------------------------------------------|
|-----1-----------------------------------------------------------|
|-----------------------------------------------------------------|
|-----------------------------------------------------------------|
|-----------------------------------------------------------------|
|-----------------------------------------------------------------|
     tree

	F
|--------1--------0-----------------------------------------------|
|-----------------------3---------1--3----------------1-----------|
|---------------------------------------------2-------------------|
|-----------------------------------------------------------------|
|-----------------------------------------------------------------|
|-----------------------------------------------------------------|
         I       see    a         salty       message
	The 	admiralty 	 surveys the

  Gm
|-----------------------------------------------------------------|
|---------------------1-------3-----------------------------------|
|-0----2-----3-----------------------------------------------0----|
|-----------------------------------------------------------------|
|-----------------------------------------------------------------|
|-----------------------------------------------------------------|
  written    in      the     eaves			    the
  remnants   of      the     fleet			    the

    C
|-----------------3-------3-------1-------0-------------------0---|
|---------------------------------------------------------3-------|
|-0---------------------------------------------------------------|
|-----------------------------------------------------------------|
|-----------------------------------------------------------------|
|-----------------------------------------------------------------|
  ground 	   beneath 	 my 	 feet		  The hot
  ground	   beneath	 their   feet             Is  a

  F				Dm
|-1----3----------0------1-------------0--------------------------|
|-----------------------------3------------------1-------3--------|
|-----------------------------------------------------------------|
|-----------------------------------------------------------------|
|-----------------------------------------------------------------|
|-----------------------------------------------------------------|
  garbage 	and       concrete     And 	now 	the
    nautically           mapped sheet   As     thin as paper

  Gm				C				F
|-------------1-----------------0------------------------0---1----|
|---------------------------------------3--------1----------------|
|-0----2---3------------------------------------------------------|
|-----------------------------------------------------------------|
|-----------------------------------------------------------------|
|-----------------------------------------------------------------|
  tops of buildings, 		I 	can 	see 	them too
	While it 		slips    a     way       from view

the instrumental bit:

   F
|-13----12-----10----------13----12----10---------|
|--------------------13--------------------13-----|
|-------------------------------------------------|
|-------------------------------------------------|
|-------------------------------------------------|
|-------------------------------------------------|

    Gm			    C
|-15----13----12----10----17----------17----18----|
|-------------------------------17----------------|
|-------------------------------------------------|
|-------------------------------------------------|
|-------------------------------------------------|
|-------------------------------------------------|

keyboard plays a major scale for this bit


That should be it!  There's alot of keyboard in this one.
            
Submit corrections

comments powered by Disqus
↑ Back to top | Vampire Weekend Tabs for Mansard Roof. Lyrics for acoustic guitar and electric guitar. Tablatures and chords are parodies/interpretations of the original songs. You may use it for private study, scholarship, research or language learning purposes only