» » »

I Stand Bass tabs (ver.1)

Artists:  A B C D E F G H I J K L M N O P Q R S T U V W X Y Z # 

I Stand Bass tabs (ver.1)

Vampire Weekend
Rating:
0/5 (0 votes)

Hard to play? Try these video lessons and learn fast.
                This probably isn't how it's played but i wanted to do a bass part for it coz i couldn't find one.

VERSE 1 (Bass comes in at 0:11)
G|---------------------|
D|----------5~---------|  x4
A|-7~------------------|
E|---------------------|

CHORUS
G|--------------------------------------|
D|-55555555--------------------55555555-|    x2
A|-----------77777777-33333333----------|
E|--------------------------------------|

VERSE 2
G|-------------------|                                    
D|----------55555555-|   x3                                
A|-77777777----------|                                    
E|-------------------|

G|------------------------|          
D|--------000000-55555555-| x1
A|-333333-----------------|          
E|------------------------| 

CHORUS x2

BRIDGE

G|------------------------------------|           
D|--------------------------------0~--| x2
A|-7--7-7~-----5-5-7----0~---3~-------|             
E|---------8-8------8-----------------|

CHORUS x2
END
            
Hard to play? Try these video lessons and learn fast. | Correct




comments powered by Disqus
↑ Back to top | Tablatures and chords are parodies/interpretations of the original songs. You may use it for private study, scholarship, research or language learning purposes only