» » »

Holiday Bass tabs (ver.1)

Artists:  A B C D E F G H I J K L M N O P Q R S T U V W X Y Z # 

Holiday Bass tabs (ver.1)

Vampire Weekend
Rating:
5/5 (6 votes)

Hard to play? Try these video lessons and learn fast.
                -------------------------------------------------------------------------------
-------------------------------------------------------------------------------


Tuning: E,A,D,G


Verse:

G|---------------------7--------|
D|--------------5h6h7-----------|
A|-4--5----5--------------------|
E|------------------------------|  x6

G|-------------------------------------------------|
D|--5--7--5--4--5--4-------------------------------|
A|--------------------7--5--4-----------4--5--7--5-|
E|-----------------------------7--5--7-------------|

G|---------------------7--------|
D|--------------5h6h7-----------|
A|-4--5----5--------------------|
E|------------------------------|  x2

G|-------------------------------------------------|
D|--5--7--5--4--5--4-------------------------------|
A|--------------------7--5--4-----------4--5--7--5-|
E|-----------------------------7--5--7-------------|


Chorus:

G|------------------------------------------------|
D|----------------------7--4----------------------|
A|----2--4--5--4--5--7--------5--2-----2----------|
E|-3--------------------------------5-----5--3--2-|

G|------------------------------------------7-----|
D|-----------------------------------5h6h7--------|
A|----2--4--5--4--5--7--4--5----5-----------------|
E|-3----------------------------------------------|  x2

G|---------------------7--------|
D|--------------5h6h7-----------|
A|-4--5----5--------------------|
E|------------------------------|  x3


Verse:

G|--------------------------------|
D|--------------------------------|
A|----17-17-----------17-17-------|
E|-----------------17-------------|

G|--------------------------------|
D|--------------16-16-------------|
A|-------17-17---------16-16------|
E|----17--------------------------|

G|--------------------------------|
D|--------------------------------|
A|----17-17-----------17-17-------|
E|-----------------17-------------|


G|--------------------------------|
D|--------17-17-16-16-14-14-------|
A|--------------------------------|     *These are seventines, sixtines and fourtines
E|----17--------------------------|     


Chorus:

G|------------------------------------------------|
D|----------------------7--4----------------------|
A|----2--4--5--4--5--7--------5--2-----2----------|
E|-3--------------------------------5-----5--3--2-|

G|------------------------------------------7-----|
D|-----------------------------------5h6h7--------|
A|----2--4--5--4--5--7--4--5----5-----------------|
E|-3----------------------------------------------| 

G|-------------------------------------------------------------------------------|
D|--------------11-11-11-11-12-12-12-12------------------------------------5h6h7-|
A|--12-12-12-12-------------------------10-10-10-10---------4-4-4-4-4--5-5-------|
E|--------------------------------------------------3-3-3-3----------------------|

G|---------------------7--------|
D|--------------5h6h7-----------|
A|-4--5----5--------------------|
E|------------------------------| x3


    **NO BASS IN GUITAR SOLO**


Bridge:

G|-12121212121212121212121212121212---------------------------------|      *Tens, elevens 
D|---------------------------------11111111111111111111111111111111-|       and twelves      
A|------------------------------------------------------------------|
E|------------------------------------------------------------------|

G|------------------------------------------------------------------|      
D|-12121212121212121212121212121212---------------------------------|         
A|---------------------------------10101010101010101010101010101010-|
E|------------------------------------------------------------------|

G|-12121212121212121212121212121212---------------------------------|       
D|---------------------------------11111111111111111111111111111111-|        
A|------------------------------------------------------------------|
E|------------------------------------------------------------------|

G|------------------------------------------------------------------|      
D|-12121212121212121212121212121212---------------------------------|         
A|---------------------------------10101010101010101010101010101010-|
E|------------------------------------------------------------------|

G|-12121212121212121212121212121212---------------------------------|       
D|---------------------------------11111111111111111111111111111111-|        
A|------------------------------------------------------------------|
E|------------------------------------------------------------------|

G|------------------------------------------------------------------|      
D|-12121212121212121212121212121212---------------------------------|         
A|---------------------------------10101010101010101010101010101010-|
E|------------------------------------------------------------------|

G|-12121212121212121212121212121212---------------------------------|       
D|---------------------------------11111111111111111111111111111111-|        
A|------------------------------------------------------------------|
E|------------------------------------------------------------------|


Verse:

G|---------------------7--------|
D|--------------5h6h7-----------|
A|-4--5----5--------------------|
E|------------------------------|  x6

G|-------------------------------------------------|
D|--5--7--5--4--5--4-------------------------------|
A|--------------------7--5--4-----------4--5--7--5-|
E|-----------------------------7--5--7-------------|

G|---------------------7--------|
D|--------------5h6h7-----------|
A|-4--5----5--------------------|
E|------------------------------|  x2

G|-------------------------------------------------|
D|--5--7--5--4--5--4-------------------------------|
A|--------------------7--5--4-----------4--5--7--5-|
E|-----------------------------7--5--7-------------|


Chorus:

G|------------------------------------------------|
D|----------------------7--4----------------------|
A|----2--4--5--4--5--7--------5--2-----2----------|
E|-3--------------------------------5-----5--3--2-|

G|------------------------------------------7-----|
D|-----------------------------------5h6h7--------|
A|----2--4--5--4--5--7--4--5----5-----------------|
E|-3----------------------------------------------| 

G|-----------------------------------------------------------------------|
D|--------------11-11-11-11-12-12-12-12----------------------------------|
A|--12-12-12-12-------------------------10-10-10-10---------4-4-4-4-4--5-|
E|--------------------------------------------------3-3-3-3--------------|

G|---------------------|
D|---------------------|
A|-4--5------4-5-----5-|
E|---------------------|


I think this is how chris plays it, and even if it isnt it sounds right once you get it.
Hope it helped.
            
Hard to play? Try these video lessons and learn fast. | Correct




comments powered by Disqus
↑ Back to top | Tablatures and chords are parodies/interpretations of the original songs. You may use it for private study, scholarship, research or language learning purposes only