» » »

Cousins Tabs (ver.1)

Artists:  A B C D E F G H I J K L M N O P Q R S T U V W X Y Z # 

Cousins Tabs (ver.1)

Vampire Weekend
Rating:
3/5 (12 votes)

Hard to play? Try these video lessons and learn fast.
                h = Hammer on
p = Pull off
s = Slide
t = Tremolo


Intro:

e|-----------------------|--------------------------|
B|----------5------------|----------5-5-5-----------|
G|---1---3--3------------|---1---3--3-3-3-----------|
D|-2---4----4------------|-2---4----4-4-4-----------|
A|-----------------------|--------------------------|
E|-----------------------|--------------------------|

e|-----------------------|--------------------------|
B|----------5------------|----------4---------------|
G|---1---3--3------------|---1---3--4---------------|
D|-2---4----4------------|-2---4----4---------------|
A|-----------------------|--------------------------|
E|-----------------------|--------------------------|

Drums enter:

e|-----------------------|--------------------------|
B|----------5------------|----------5-5-5-----------|
G|---1---3--3------------|---1---3--3-3-3-----------|
D|-2---4----4------------|-2---4----4-4-4-----------|
A|-----------------------|--------------------------|
E|-----------------------|--------------------------|

e|-----------------------|--------------------------|
B|----------5------------|----------4---------------|
G|---1---3--3------------|---1---3--4---------------|
D|-2---4----4------------|-2---4----4---------------|
A|-----------------------|--------------------------|
E|-----------------------|--------------------------|

Chanting enters:

e|-----------------------|--------------------------|
B|----------5------------|----------5-5-5-----------|
G|---1---3--3------------|---1---3--3-3-3-----------|
D|-2---4----4------------|-2---4----4-4-4-----------|
A|-----------------------|--------------------------|
E|-----------------------|--------------------------|

e|-----------------------|--------------------------|
B|----------5------------|----------4---------------|
G|---1---3--3------------|---1---3--4---------------|
D|-2---4----4------------|-2---4----4---------------|
A|-----------------------|--------------------------|
E|-----------------------|--------------------------|

e|-----------------------|--------------------------|
B|----------5------------|----------5-5-5-----------|
G|---1---3--3------------|---1---3--3-3-3-----------|
D|-2---4----4------------|-2---4----4-4-4-----------|
A|-----------------------|--------------------------|
E|-----------------------|--------------------------|

e|-----------------------|--------------------------|
B|----------5------------|----------4---------------|
G|---1---3--3------------|---1---3--4---------------|
D|-2---4----4------------|-2---4----4---------------|
A|-----------------------|--------------------------|
E|-----------------------|--------------------------|

Bass and Drums in first two verses:

You found a sweater on the ocean floor
They're gonna find it if you didn’t close the door.
You and this model sit outside the side,
In a house on a street they wouldn’t park on the night.

Dad was a risk taker.
His was a shoe maker.
You greatest hits 2006,
Little list maker.

Caught in the melody,
You wait in the car.
You were born with ten fingers and you're gonna use them all.

Bridge x 2

1st Guitar:


e|----------------------------------------------------------------|
B|---17t--16t--14t-12t-11t-12t 11t 9t 7t 9t 7t-5t-4h5p4h5p4s2-0---|
G|----------------------------------------------------------------|
D|----------------------------------------------------------------|
A|----------------------------------------------------------------|
E|----------------------------------------------------------------|

2nd Guitar:


e|----------------------------------------------------------------|
B|---17t--16t--14t-12t-11t-12t 11t 9t 7t 9t 7t-5t-4h5p4h5p4s2-0---|
G|----------------------------------------------------------------|
D|----------------------------------------------------------------|
A|----------------------------------------------------------------|
E|----------------------------------------------------------------|

Interest in colors
I discover myself
If your art life is gritty you'll be toasting my health
If an interest in culture should be lining the walls
When your birth right is interest you could just accrue it all

          E
Me and my cousins,
                 F#
And you and your cousins
B                B7
Its a line that always running.
          E
Me and my cousins,
             F#
You and your cousins,
B             B7
I can feel it coming.


e|-----------------------|--------------------------|
B|----------5------------|----------5-5-5-----------|
G|---1---3--3------------|---1---3--3-3-3-----------|
D|-2---4----4------------|-2---4----4-4-4-----------|
A|-----------------------|--------------------------|
E|-----------------------|--------------------------|

e|-----------------------|--------------------------|
B|----------5------------|----------4---------------|
G|---1---3--3------------|---1---3--4---------------|
D|-2---4----4------------|-2---4----4---------------|
A|-----------------------|--------------------------|
E|-----------------------|--------------------------|

e|-----------------------|--------------------------|
B|----------5------------|----------5-5-5-----------|
G|---1---3--3------------|---1---3--3-3-3-----------|
D|-2---4----4------------|-2---4----4-4-4-----------|
A|-----------------------|--------------------------|
E|-----------------------|--------------------------|

e|-----------------------|--------------------------|
B|----------5------------|----------4---------------|
G|---1---3--3------------|---1---3--4---------------|
D|-2---4----4------------|-2---4----4---------------|
A|-----------------------|--------------------------|
E|-----------------------|--------------------------|

You can throw your back on the bitter wood,
You can throw your back on the bitter wood,
You can throw your back on the bitter wood,
You can throw your back on the bitter wood.

          E
Me and my cousins,
                 F#
And you and your cousins
B                B7
Its a line that always running.
          E
Me and my cousins,
             F#
You and your cousins,
B             B7
I can feel it coming.

          E
Me and my cousins,
                 F#
And you and your cousins
B                B7
Its a line that always running.
          E
Me and my cousins,
             F#
You and your cousins,
B             B7
I can feel it coming.

Chrous:
e|-----------------------------------------------------------------|
B|-5-----4---5-----4-----------------------------------------------|
G|-3-----4---3-----4-----------------------------------------------|
D|-4-x3--4---4-x3--4-----------------------------------------------|
A|-----------------------------------------------------------------|
E|-----------------------------------------------------------------|

Bridge x 2

1st Guitar:

e|----------------------------------------------------------------|
B|---17t--16t--14t-12t-11t-12t 11t 9t 7t 9t 7t-5t-4h5p4h5p4s2-0---|
G|----------------------------------------------------------------|
D|----------------------------------------------------------------|
A|----------------------------------------------------------------|
E|----------------------------------------------------------------|
2nd Guitar:

e|----------------------------------------------------------------|
B|---17t--16t--14t-12t-11t-12t 11t 9t 7t 9t 7t-5t-4h5p4h5p4s2-0---|
G|----------------------------------------------------------------|
D|----------------------------------------------------------------|
A|----------------------------------------------------------------|
E|----------------------------------------------------------------|
            
Hard to play? Try these video lessons and learn fast. | Correct




comments powered by Disqus
↑ Back to top | Tablatures and chords are parodies/interpretations of the original songs. You may use it for private study, scholarship, research or language learning purposes only