» » »

Campus Bass tabs (ver.1)

Artists:  A B C D E F G H I J K L M N O P Q R S T U V W X Y Z # 

Campus Bass tabs (ver.1)

Vampire Weekend
Rating:
2/5 (6 votes)

Hard to play? Try these video lessons and learn fast.
                Start @ 0:03
G|-----------------|
D|--------9-10-12--|
A|--10-12----------| 
E|-----------------|

G|--------------------|
D|-----------9-10-12--|
A|--10-10-12----------| 8X
E|--------------------|

G|-------------------------------|
D|---------12-10-12----12-10-12--|
A|--10-10-----------10-----------|
E|-------------------------------|

Fast
G|-----------------------------------|
D|-----------------------------------|
A|--10-10-10-10/17-17-17-17-15(8X)---| 4X
E|-----------------------------------|

G|-----------------|
D|--------9-10-12--|
A|--10-12----------| 
E|-----------------|

G|--------------------|
D|-----------9-10-12--|
A|--10-10-12----------| 5X
E|--------------------|

G|-------------------------------|
D|---------12-10-12----12-10-12--|
A|--10-10-----------10-----------|
E|-------------------------------|

Fast
G|-----------------------------------|
D|-----------------------------------|
A|--10-10-10-10/17-17-17-17-15(8x)---| 4X
E|-----------------------------------|

G|-----------------------------|
D|--------10(8X)-12(8X)--------|
A|--10(8X)-------------10(8X)--| 6X
E|-----------------------------|

G|-----------------------------|
D|--------10(8X)-12(8X)/17(8X)-|
A|--10(8X)---------------------|
E|-----------------------------|

G|-----------------------------|
D|--17(8X)\-10(8X)-12(8X)------|
A|-----------------------10(8X)|
E|-----------------------------|

G|-----------------------------|
D|--------10(8X)-12(8X)--------|
A|--10(8X)-------------10(8X)--| 2X
E|-----------------------------|

G|-----------------------------|
D|--------10(8X)-12(8X)/17(8X)-|
A|--10(8X)---------------------|
E|-----------------------------|

G|-------------------------|
D|--17(8X)\-10(8X)-12(8X)--|
A|-------------------------|
E|-------------------------|

G|-----------------|
D|--------9-10-12--|
A|--10-12----------| 
E|-----------------|

G|--------------------|
D|-----------9-10-12--|
A|--10-10-12----------| 6X
E|--------------------|

G|---------|
D|---------|
A|--10-----|
E|---------|

------------
Please Rate!
            
Hard to play? Try these video lessons and learn fast. | Correct




comments powered by Disqus
↑ Back to top | Tablatures and chords are parodies/interpretations of the original songs. You may use it for private study, scholarship, research or language learning purposes only