» » »

A-punk Tabs (ver.4)

Artists:  A B C D E F G H I J K L M N O P Q R S T U V W X Y Z # 

A-punk Tabs (ver.4)

Vampire Weekend
Rating:
5/5 (2 votes)

Hard to play? Try these video lessons and learn fast.
                Use a clean, compressed strat tone for this tune 

The intro and verses consist of:

PART 1

e|--9--9--12-12-7-7-1010---------------|
B|--10-10-10-10-8-8-8-8--7-7-7-7-7-7-7-|
G|-----------------------7-7-7-7-7-7-7-|
D|-------------------------------------|
A|-------------------------------------|
E|-------------------------------------|

PART 2

e|--5-5-5-5-5-5-5-5-2-2-2-2--|
B|--7-7-7-7-5-5-5-5-3-3-3-3--|
G|---------------------------|
D|---------------------------|
A|---------------------------|
E|---------------------------|

The verses are: 
PART 1 x3
PART 2 x2
PART 1 x3
PART 2 x2

The intro is simply half of that

The chorus is played on a keyboard with a pan flute setting,
I've tabbed it out too for those of you who want to play it
on keyboard or maybe even guitar (try both and see which sounds
better)

I've tabbed this out using the same rhythm as the verse part
just to make it easier. If you're playing it on guitar, you might
wanna try arpeggiating it (ie. alternating between the B and G
string)

PART 3

e|--------------------------------------------------|
B|--7--7--7--7--8--8--8--8--9--9--9--9--7--7--7--7--|
G|--7--7--7--7--9--9--9--9--11-11-11-11-7--7--7--7--|
D|--------------------------------------------------|
A|--------------------------------------------------|
E|--------------------------------------------------|

e|--------------------------------------------------|
B|--12-12-12-12-12-12-12p10-10-10-10-10-7--7--7--7--|
G|--12-12-12-12-12-12-11----11-11-11-11-7--7--7--7--|
D|--------------------------------------------------|
A|--------------------------------------------------|
E|--------------------------------------------------|

e|--------------------------------------------------|
B|--7--7--7--7--8--8--8--8--9--9--9--9--7--7--7--7--|
G|--7--7--7--7--9--9--9--9--11-11-11-11-7--7--7--7--|
D|--------------------------------------------------|
A|--------------------------------------------------|
E|--------------------------------------------------|

e|--------------------------------------------------|
B|--12-12-12-12-12-12-12p10-10-10-10-10-10-10-10-10-|
G|--12-12-12-12-12-12-11----11-11-11-11-11-11-11-11-|
D|--------------------------------------------------|
A|--------------------------------------------------|
E|--------------------------------------------------|

PART 4

e|--------------------------------------------------|
B|--7--7--7--7--8--8--8--8--9--9--9--9--7--7--7--7--|
G|--7--7--7--7--9--9--9--9--11-11-11-11-7--7--7--7--|
D|--------------------------------------------------|
A|--------------------------------------------------|
E|--------------------------------------------------|

e|--------------------------------------------------|
B|--12-12-12-12-12-12-12p10-10-10-10-10-7--7--7--7--|
G|--12-12-12-12-12-12-11----11-11-11-11-7--7--7--7--|
D|--------------------------------------------------|
A|--------------------------------------------------|
E|--------------------------------------------------|

e|--------------------------------------------------|
B|--7--7--7--7--8--8--8--8--9--9--9--9--7--7--7--7--|
G|--7--7--7--7--9--9--9--9--11-11-11-11-7--7--7--7--|
D|--------------------------------------------------|
A|--------------------------------------------------|
E|--------------------------------------------------|


e|--------------------------------------------------|
B|--12-12-12-12-12-12-12-12-12-12-12-12-12-12-12-12-|
G|--12-12-12-12-12-12-12-12-12-12-12-12-12-12-12-12-|
D|--------------------------------------------------|
A|--------------------------------------------------|
E|--------------------------------------------------|

Chorus 1 is:
PART 3
PART 4

Chorus 2 is:
PART 3 x3
PART 4

Remember the post-chorus rest (the 'Hey Hey Hey' bit) before the verse kicks in.

Enjoy
xx
            
Hard to play? Try these video lessons and learn fast. | Correct




comments powered by Disqus
↑ Back to top | Tablatures and chords are parodies/interpretations of the original songs. You may use it for private study, scholarship, research or language learning purposes only