» » »

Vampire Love Dolls, Spinning Tabs (ver.1)

Artists:  A B C D E F G H I J K L M N O P Q R S T U V W X Y Z # 

Spinning Tabs (ver.1)

Vampire Love Dolls Tabs
Rating:
0/5 (0 votes)
Spinning lessons Tabs too difficult? Try these video lessons and learn fast
                
Vampire Love Dolls
VLD Ep

.:Intro:.
|------------------------------|
|------------------------------|
|------------------------------|
|-0--0-0-1--0-0-0--0-0-1ˆ0-----|
|--------------------------1ˆ0-|
|------------------------------|

.:Verse:.
|-------------------------------------------|
|-------------------------------------------|
|-------------------------------------------|
|-------------------------------------------|
|-5----harmonics-------8----harmonics-------|
|-5----harmonics-------8----harmonics-------|

.:Chorus:.
|-----------------------------|
|-----------------------------|
|-----------------------------|
|-----------------------------|
|-5------8------3------6------|
|-5------8------3------6------|

.:Bridge:.
guitar 1(let ring)
|--------------------|
|--------------------|
|--------------------|
|--------------------|
|-8------------------|
|-6------------------|

.:OUTLINE:.
Intro
Verse
Chorus
Intro
Verse
Chorus
Intro
Bridge
Chorus
Intro
            

comments powered by Disqus
↑ Back to top | Vampire Love Dolls Tabs for Spinning. Lyrics for acoustic guitar and electric guitar. Tablatures and chords are parodies/interpretations of the original songs. You may use it for private study, scholarship, research or language learning purposes only