» » »

Vamp, Hallo - Adju Bass tabs (ver.1)

Artists:  A B C D E F G H I J K L M N O P Q R S T U V W X Y Z # 

Hallo - Adju Bass tabs (ver.1)

Vamp Tabs
Rating:
0/5 (0 votes)
Hallo - Adju lessons Tabs too difficult? Try these video lessons and learn fast
                 Hallo - Adjø Bass


            Band: Vamp

Copyright (c) Majorstudios 1993
Version 1.0 - 28.10.07

T
Tuning E A D G B E
Intro:
E|----5---7---0----5---7---0-----5-----3-----------------------------|
A|----------------------------------5-----3---2---2------------------|
D|-------------------------------------------------------------------|
G|-------------------------------------------------------------------|

|-------------------------------------------------------------------|
|--7--5--7--5--7--5--7--5-------------------------------------------|
|-------------------------------------------------------------------|
|-------------------------------------------------------------------|

Gitarriff:
|---0----------------------0------------------------------------------|
|------0---------3---2-------0-------3---2----------------------------|
|---------0--------------------0--------------------------------------|
|------------0-------------------0------------------------------------|

|-------------------------------------------------------------------|
|-7--5--7--5--7--5--7--5--------------------------------------------|
|-------------------------------------------------------------------|
|-------------------------------------------------------------------|
Så rart å møtes etter flere år et " kossen har du det" og " Takk det går"
|--------------------------------------------------------------0----|
|---7-----------5-------3--------------2---------------2------------|
|-------------------------------------------------------------------|
|-------------------------------------------------------------------|
I farten får eg ikkje sagt deg mer, men lese fort ditt ansikt og ditt hår

|------------------------------------------------------------0------|
|--7----------5-----------3--------------2------------2-------------|
|-------------------------------------------------------------------|
|-------------------------------------------------------------------|

Der går så mange frammamde omkring, Men eg ser ingen. Der fins ingenting


|-----------5-------7-----------0----------------5-----7----------0-------|
|-------------------------------------------------------------------------|
|-------------------------------------------------------------------------|
|-------------------------------------------------------------------------|

i nåken små sekunder, bara du, Det streife. hjerta så ein fuglaving


|--------5----------------3----------------2---------2------0-------|
|--------------5-----------------3----------------------------------|
|-------------------------------------------------------------------|
|-------------------------------------------------------------------|

    Hallo--------     Adjø      Hallo--------        Adjø
|------5----7---------0---------5----7----------0-------------------|
|-------------------------------------------------------------------|
|-------------------------------------------------------------------|
|-------------------------------------------------------------------|


Gitarriff:
|---0----------------------0------------------------------------------|
|------0---------3---2-------0-------3---2----------------------------|
|---------0--------------------0--------------------------------------|
|------------0-------------------0------------------------------------|

|-------------------------------------------------------------------|
|-7--5--7--5--7--5--7--5--------------------------------------------|
|-------------------------------------------------------------------|
|-------------------------------------------------------------------|
Så fort og flyktig. Brått e alt forbi, og me går kver te vårt. Men kanskje i
|--------------------------------------------------------------0----|
|---7-----------5-------3--------------2---------------2------------|
|-------------------------------------------------------------------|
|-------------------------------------------------------------------|
det korta møtet myldra tusen ord så visst va unødvendige å gi.

|------------------------------------------------------------0------|
|--7----------5-----------3--------------2------------2-------------|
|-------------------------------------------------------------------|
|-------------------------------------------------------------------|
I mellom mennesker som oss, som sto ,så nær kverandre eingong, går ei bro

|-----------5-------7-----------0----------------5-----7----------0-------|
|-------------------------------------------------------------------------|
|-------------------------------------------------------------------------|
|-------------------------------------------------------------------------|
fra kyst til kyst, usynlig over sjø som binde dei te ett om dei e to.

|--------5----------------3----------------2---------2------0-------|
|--------------5-----------------3----------------------------------|
|-------------------------------------------------------------------|
|-------------------------------------------------------------------|

    Hallo--------     Adjø      Hallo--------        Adjø
|------5----7---------0---------5----7----------0-------------------|
|-------------------------------------------------------------------|
|-------------------------------------------------------------------|
|-------------------------------------------------------------------|

Hallo--------     Adjø      Hallo--------        Adjø
|------5----7---------0---------5----7----------0-------------------|
|-------------------------------------------------------------------|
|-------------------------------------------------------------------|
|-------------------------------------------------------------------|

Gitarriff:
|---0----------------------0------------------------------------------|
|------0---------3---2-------0-------3---2----------------------------|
|---------0--------------------0--------------------------------------|
|------------0-------------------0------------------------------------|


END...
            

comments powered by Disqus
↑ Back to top | Vamp Bass for Hallo - Adju. Lyrics for acoustic guitar and electric guitar. Tablatures and chords are parodies/interpretations of the original songs. You may use it for private study, scholarship, research or language learning purposes only