>
 >
Wound

Wound Guitar Tabs

Valley Of Chrome - Wound chords, tabs, tablatures, lyrics

Guitar lessons | Add/correct | Request | Top 50 tabs Artists:  A B C D E F G H I J K L M N O P Q R S T U V W X Y Z 0-9

Wound Guitar Tabs – Valley Of Chrome

CD, Sheet music, Poster

Do you like Wound? Share with your friends now
Tabs
Album:Anthem for the Sell Out Youth
              09229015724(Sun Cell)
 
Gtr.Legends:
. - PALM MUTING
x - DEAD STRING
~ - LET IT RING
/ - SLIDE

Gtr.Tuning:Drop D

e|------------------------------------------------|
B|------------------------------------------------|
G|------------------------------------------------|
D|-4------------2------------4-------------2222---|
A|-4--77-55-44--2--44-22-44--4--77--55-44--2222---|
D|-4------------2------------4-------------2222---|
   .            .            .
When everything has lost...
e|-----------------------------|
B|-----------------------------|
G|-----------------------------|
D|-xx4-xx4-xx4-xx4--000--222---|
A|-xx4-xx4-xx4-xx4--000--222---|
D|-xx4-xx4-xx4-xx4--000--222---|

I won't surrender to the verbal lashing...
e|-----------------------------|
B|-----------------------------|
G|-----------------------------| 2x
D|------------------000--222---|
A|-x9b-x9b-x9b-x9b--000--222---|
D|------------------000--222---|

They,dont know how...
e|------------------|
B|------------------|
G|------------------| 2x
D|-4~--2~--0~--6~---|
A|-4~--2~--0~--4~---|
D|-4~--2~--0~-------|

The wound is deep,and there's no cure.....
e|------------------------------------------------|
B|------------------------------------------------|
G|------------------------------------------------|
D|-4------------2------------4-------------2222---|
A|-4--77-55-44--2--44-22-44--4--77--55-44--2222---|
D|-4------------2------------4-------------2222---|
   .            .            .         

Been labeled a victim...
e|-----------------------------|
B|-----------------------------|
G|-----------------------------|
D|-xx4-xx4-xx4-xx4--000--222---|
A|-xx4-xx4-xx4-xx4--000--222---|
D|-xx4-xx4-xx4-xx4--000--222---|

The coldness of asphalt...
e|-------------------------|
B|-------------------------|
G|-------------------------|
D|--------------000--222---|
A|-9b-9b-9b-9b--000--222---|
D|--------------000--222---|

You'll never know how...
e|------------------|
B|------------------|
G|------------------| 2x
D|-4~--2~--0~--6~---| Then
A|-4~--2~--0~--4~---|
D|-4~--2~--0~-------|

e|-------------------|
B|-------------------|
G|-------------------|
D|--2--0~--000--2~---|
A|--2--0~--000--2~---|
D|--2--0~--000--2~---|

Faceless mask and candles lit... I done wrong
e|--------------                 -------|
B|-------------- Repeat          -------|
G|-------------- Many            -------|
D|-------------- Times           --4~---|
A|-------------- Then            --4~---|
D|--3-2-1-00----                 --4~---|
    . . . ..

I may have all knowledge...(Clean gtr.)
e|----------------------------------------------------------|
B|----------------------------------------------------------|
G|-----------------------------------------------------6~---|
D|-----------------------------------------------------6~---|
A|--44---44--44--44---22--22--22--22---00--00--00--00--4~---|
D|-4---4----4---4----2---2---2---2----0---0---0---0---------|

Now,I have realized I was playing Christ...(Clean gtr.)
e|------------------------------------------------------|
B|------------------------------------------------------|
G|-------------------------------------------6~-pedal---|
D|-4444--2222--0000-6666---4444--2222--0000--6~-ons-----|
A|-4444--2222--0000-4444---4444--2222--0000--4~---------|
D|-4444--2222--0000--------4444--2222--0000-------------|

The world,will watch our rise and fall...
e|-----------------------------|
B|-----------------------------|
G|-----------------------------|
D|-44444--22222--0000--66666---|
A|-44444--22222--0000--44444---|
D|-44444--22222--0000----------|
   .....  .....  ....  .....

There never was a sign...
e|-----------------------------------|
B|-----------------------------------|
G|-----------------------------------|
D|-0-4----4-2----2-0---0-6-9-6-9-6---|
A|-0-4----4-2----2-0---0-4-7-4-7-4---|
D|-0-4----4-2----2-0---0-------------|

Scars on my hands and knees...
e|-------------------------|
B|-------------------------|
G|--------------------6~---|
D|-0-4----4-2----2-0--6~---|
A|-0-4----4-2----2-0--4~---|
D|-0-4----4-2----2-0-------|

The wounded one is me....
Gtr.1
e|-----------------------------|
B|-----------------------------|
G|-----------------------------|
D|-44444--22222--0000--66666---|
A|-44444--22222--0000--44444---|
D|-44444--22222--0000----------|
   .....  .....  ....  .....

Gtr.2 Enters:
e|-2~--4-4/5-4--2----4-4/5-4-2---4-4/5-4-2-------|
B|----------------5~-----------3~-----------2~---|
G|-----------------------------------------------|
D|-----------------------------------------------|
A|-----------------------------------------------|
D|-----------------------------------------------|

Wounded one is me.....
Gtr.1
e|------------------|
B|------------------|
G|------------------|
D|-6--4--2--6--4~---|
A|-4--2--0--6--4~---|
D|----------6--4~---|

Gtr.2
e|-2/17-16-15-14-13~---|
B|---------------------|
G|---------------------|
D|---------------------|
A|---------------------|
D|---------------------|

End...





Comments


Popular Valley Of Chrome tabs & chords
Forever Young Bass Tabs
Scourging At The Pillar Chords
Art Of Letting Go 3 Tabs
Conquering Hades 1 Tabs
Forever Young 3 Tabs
Heroes In A Dying Age Tabs
Kiss Of Medusa Tabs
Love And Devotion Tabs
Pangako Tabs
The Art Of Letting Go Tabs


Song lyrics



↑ Back to top | Tablatures and chords are parodies/interpretations of the original songs. You may use it for private study, scholarship, research or language learning purposes only
© 2014 AZChords.com Contact us | Privacy policy | DMCA | Add/correct tabs | Request tabs | Top 50 tabs