» » »

Art Of Letting Go Tabs (ver.2)

Artists:  A B C D E F G H I J K L M N O P Q R S T U V W X Y Z # 

Art Of Letting Go Tabs (ver.2)

Valley Of Chrome
Rating:
0/5 (0 votes)

Hard to play? Try these video lessons and learn fast.
                (1)
Band:Valley of Chrome


Sa mga may koments at sadyestson!!
Pulpcomm.user:||The_Used||
YM:theused_of_d_ink

pm nyu lang ako kung gus2 nyu pa ng tabs ng voc...
meron akong twilight,we the dying,cast no shadow at forever young
di ko lang mai post kasi nakakatamad gumawa!!


(Acoustic Guitar)

Tunung:EADGBE

C5  B5  Am5 G5
x   x   x   x
x   x   x   x
x   x   5   4
10  9   7   5
10  9   7   5
8   7   5   3

intro:

------------      -------------------------|
------------      -------------------------|
------------      -------------------------|
----10-5-3~- X1   ---10-10/9-5-5-7-7-7-----| X2    Repeat 4X
----10-5-3~-      ---10-10/9-5-5-7-7-7-----|
-----8-7-5~-      ----8-8 /7-3-3-5-5-5-----|


------------|
------------|
------------|
----10-5-3~-|
----10-5-3~-|
-----8-7-5~-|

  Am5                                     G5
is this goodbye and farewell? it's a romantic tragedy

  Am5                             G5
all is fair in love and war and I'm the lonely casualty

(Palm Mute)
  Am5
your forked tongue has lost it's sharpness

  G5
it does'nt have the luster it used to before

  Am5
sure it takes a lot of soul to forgive

  G5
so let me show you your way out of that doo

 C5        B5               A5           C5      B5         A5
you are a beautiful walking mistake and from you I have learned

 C5        B5               A5           C5      B5           A5
how could someone so true be so fake? Now you're none of my concern


chorus:

------------      -------------------------|
------------      -------------------------|
------------      -------------------------|
----10-5-3~- X1   ---10-10/9-5-5-7-7-7-----| X2    Repeat 4X
----10-5-3~-      ---10-10/9-5-5-7-7-7-----|
-----8-7-5~-      ----8-8 /7-3-3-5-5-5-----|

C5 B5 A5
let go - you are nothing I deserve
- your acting's all but superb
- a romance for the deaf and blind
- with such poor taste and design


  Am5                                      G5
these calloused hands are shaking and I'm breathing heavily

  Am5                                   G5
soon all of this will be over shadows reaching out to me


(Palm Mute)
 Am5
sweet nothings in my ears now they disgust

  G5
those letters you've sent now gather dust

  Am5
sure it takes a lot of soul to forgive

  G5
I'm dead with you and now I want to live


--------------     ----------------------|
--------------     ----------------------|
--------------     ----------------------|
7-10-10/9-9-9- X1  ---5-7-10-10/9-9-9----|
7-10-10/9-9-9-     ---5-7-10-10/9-9-9----|
5--8--8/7-7-7-     ---3-5--8--8/7-7-7----|

                     ^^^^^^^^^^^
and now this is the time and I cannot pretend
the day I live again is when our story ends

          ----------------------|
          ----------------------|
          ----------------------|
          ---5-7-10-10/9-9-9----|
          ---5-7-10-10/9-9-9----|
          ---3-5--8--8/7-7-7----|

  ^^^^^^^^^^^^^^^^^^^^^^^^^^^^^^^^^^^^^^^^^^^
  ganyan pa din hanggang sa matapos ang kanta
Pede nyu ding sabayan ng Am5 , G5 hanggang matapos

                 ^^^^^^^
dramatic lies and severed ties in bloodstained cradles lay
despite the loss that bridge I'll cross come calm or storm what may
we drank the wine the undivine process of suicide
let it be known apart we've grown I gave you everything I own
and as you make your final exit I let our story slip away
I bury you with the memories of a forgotten yesterday

END....

sencia na ah walang lead!! hirap eh ehhehe!!

Ang Tab na ito ay d ko alam kung tama ahhehehhe!! pero sana makatulong
sa mga gumagawa.....

pakirate na lang din!!
            
Hard to play? Try these video lessons and learn fast. | Correct




comments powered by Disqus
↑ Back to top | Tablatures and chords are parodies/interpretations of the original songs. You may use it for private study, scholarship, research or language learning purposes only