» » »

Love And Devotion Tabs (ver.2)

Artists:  A B C D E F G H I J K L M N O P Q R S T U V W X Y Z # 

Love And Devotion Tabs (ver.2)

Valley Of Chrome
Rating:
5/5 (1 vote)

Tabs too difficult? Try these video lessons and learn fast.
                


-pinakapa sakin ng kaclan ko sa fantasy clan
-si jet d’ eux
-95% accurate
-di ko kasi maxado nilinis
-nakakatamad eh
-hehe
-kayo na bahalang maglinis
-add nyo ko sa friendster



. . . : : :R 
. . . : : :O 
. . . : : :C 
. . . : : :K 
. . . : : :
. . . : : :O 
. . . : : :N 
. . . : : :!


					 32nd
				      ============	
E||--------------------------------------|----------------18~-------------------|
B||---14~-151617-------161718------------|--------131415------------------------|
G||-------------14~----------15----------|--131415------------------------------|
D||--------------------------------------|--------------------------------------|
A||--------------------------------------|--------------------------------------|
E||--------------------------------------|--------------------------------------|

	      32nd
    ==========================
E||--------------------------------------|----------------15--14--13------------|
B||-21p20p19-19p18p17-17p16p15---14~-----|-151617-------------------------------|
G||--------------------------------------|-------14~--1313--13--13--------------|
D||--------------------------------------|--------------------------------------|
A||--------------------------------------|--------------------------------------|
E||--------------------------------------|--------------------------------------|

				      32nd
                        =========================================== 
E||-------------------|---------------------------------19-17h18—21~-19-17—22~h23-20|
B||------1615-121214--|-14h15h16-14h16h17-16h17h18-17h18----------------------------|
G||-1212--------------|-------------------------------------------------------------|
D||-------------------|-------------------------------------------------------------|
A||-------------------|-------------------------------------------------------------|
E||-------------------|-------------------------------------------------------------|

                        32nd
    =========================================  
E||----20-181719-1617----161514-151413-141312|-15~-1413-----------------------------|
B||-18---------------------------------------|---------14—12h14p12—-141312-121110---|
G||------------------------------------------|--------------------------------------|
D||------------------------------------------|--------------------------------------|
A||------------------------------------------|--------------------------------------|
E||------------------------------------------|--------------------------------------|

			         32nd	
	       =========================================== 			
E||----------------------------------------------|--------------------------------------|
B||-5-7~--6-8^--5--------------------------------|---131416^--13—14~--------------------|
G||--------------6h7h8-8h9h10-10h11h12-12h13h14--|--------------------------------------|
D||----------------------------------------------|--------------------------------------|
A||----------------------------------------------|--------------------------------------|
E||----------------------------------------------|--------------------------------------|

  
            
Tabs too difficult? Try these video lessons and learn fast.




comments powered by Disqus
↑ Back to top | Tablatures and chords are parodies/interpretations of the original songs. You may use it for private study, scholarship, research or language learning purposes only