» » »

Love And Devotion Tabs (ver.3)

Artists:  A B C D E F G H I J K L M N O P Q R S T U V W X Y Z # 

Love And Devotion Tabs (ver.3)

Valley Of Chrome
Rating:
0/5 (0 votes)

Tabs too difficult? Try these video lessons and learn fast.
                emotown project
Aeroniell A Pelaez


Love and devotion by VOC



tuning E A D G B e
 INTRO 
guitar 1
[-----4--------------------------------------------------------]
[--------4--5--4h5---------------4------7----------------------]
[--------------------4-------6---------------------------------]
[------------------------7----------9--------------------------]
[---4----------------------------------------------------------]
[--------------------------------------------------------------]

[-----4--------------------------------------------------------]
[-------4--5---4h5-------------------9--7h9---5----------------]
[--------------------4---------9-------------------------------]
[------------------------7--7-----7----------------------------]
[---4----------------------------------------------------------]
[--------------------------------------------------------------]

guitar 2

[--------------------------------------------------------------]
[--------------------------------------------------------------]
[---6---2-----4----------6---2222--4444------------------------]
[---6---2-----4----(x3)--6---2222--4444------------------------]
[---4---0-----2----------4---0000--2222------------------------]
[-----0----0---------------------------------------------------]
                       Hold

[--------------------------------------------------------------]
[--------------------------------------------------------------]
[---6666666666---2222--4444------------------------------------]
[---6666666666---2222--4444------------------------------------]
[---4444444444---0000--2222------------------------------------]
[--------------------------------------------------------------]

pakinggan nyu nlang kung ilan

verse
[--------------------------------------------------------------]
[--------------------------------------------------------------]
[--------------------------------------------------------------]
[---66--4-6-----2----4-----------------------------------------]
[---44--2-4-----0----2-----------------------------------------]
[------------0----0--------------------------------------------]

paulit ulit lang yan bahala na kayu dun sa mga sundot!!

chorus

[--------------------------------------------------------------]
[--------------------------------------------------------------]
[---6666666666---2222--4444------------------------------------]
[---6666666666---2222--4444------------------------------------]
[---4444444444---0000--2222------------------------------------]
[--------------------------------------------------------------]

paki tsempohan nlng!!

bridge

[--------------------------------------------------------------]
[--------------------------------------------------------------]
[---6-------2--------4---------4-------------------------------]
[---6-(x6)--2-(x6)---4---(x6)--4--(x6)-------------------------]
[---4-------0--------2---------6-------------------------------]
[--------------------------------------------------------------]


pacenxa na hinde tapos d ko pa alam karugtong hirap!!!
para kay ton ton 2ng tab na to!!!
            
Tabs too difficult? Try these video lessons and learn fast.


comments powered by Disqus
↑ Back to top | Tablatures and chords are parodies/interpretations of the original songs. You may use it for private study, scholarship, research or language learning purposes only