>
 >
Forever Young 2

Forever Young 2 Guitar Tabs

Valley Of Chrome - Forever Young 2 chords, tabs, tablatures, lyrics

Guitar lessons | Add/correct | Request | Top 50 tabs Artists:  A B C D E F G H I J K L M N O P Q R S T U V W X Y Z 0-9

Forever Young 2 Guitar Tabs – Valley Of Chrome

CD, Sheet music, Poster

Do you like Forever Young 2? Share with your friends now
Bass TabsChordsTabsTabs v2Tabs v3Tabs v4Ukulele
Cell:Wala ehhehe!!
Krass:Lace :D
Pulpcom.user:||The_Used||and  jepoi 

For Comments and suggestion

Pakirate nlng mga bakla!!
Coming soon: We the Dying,Twilight,When everything turn to dust.....ehheh
katamad lng gumawa eh la oras mag net ehehhe .......
thanx nga pala kay gotheng ehehe nagawa ko na ung The Art of letting go

^=Palm Mute


FOREVER YOUNG


intro:G1
e---------------------------------|
B----3-3-5-6--5-6-8--6-5-6-5-3----|
G---------------------------------|
D---------------------------------| Repeat many times
A---------------------------------|
D---------------------------------|
intro:G2
e-------------------------------------|
B-------------------------------------|
G-------------------------------------|
D----0~~~~~0-3~~~~~3-5~~~~~5-8~~~~~8--| repaet 4x
A----0~~~~~0-3~~~~~3-5~~~~~5-8~~~~~8--|
D----0~~~~~0-3~~~~~3-5~~~~~5-8~~~~~8--|

verse:Both PM
e-----------------------------------------------------|
B-----------------------------------------------------|
G-----------------------------------------------------|
D----0~0~0~0~0~0-3~3~3~3~3~3-5~5~5~5~5~5-8~8~8~8~8~8--| x4
A----0~0~0~0~0~0-3~3~3~3~3~3-5~5~5~5~5~5-8~8~8~8~8~8--|
D----0~0~0~0~0~0-3~3~3~3~3~3-5~5~5~5~5~5-8~8~8~8~8~8--|
       ^ ^ ^ ^ ^   ^ ^ ^ ^ ^   ^ ^ ^ ^ ^   ^ ^ ^ ^ ^
The basic things are losing their value
and the pace of life is so complex
The people around me feel the pressure but
I'll remain forever young
They want more than they need and
they give more than they could bleed
They feel they're next in line yet
I'll remain forever young

e--------------------------------------|
B--------------------------------------|
G--------------------------------------|
D-----3-3-0-3-5~5~5~5~-8-8-8-8-8-8-8---| 4x
A-----3-3-0-3-5~5~5~5~-8-8-8-8-8-8-8---|
D-----3-3-0-3-5~5~5~5~-8-8-8-8-8-8-8---|

I control the hands of time- much to the majority's dismay
If you'd leave me behind- I'm a picture painted in black and gray
But my colors are inside- when it's just too difficult to see
And I just feel alive- this means so much to me

e----------------------------------------|
B-----------6------6---------------------|
G-----------7------7---------------------|
D------0-0-----0-0-----3-3-5-5~~~~~x-----| 4x
A------0-0-----0-0-----3-3-5-5~~~~~x-----|
D------0-0-----0-0-----3-3-5-5~~~~~x-----|
       ^ ^     ^ ^
Young!! Young!! - holding on and taking grasp
- a vow that I will last
- I've learned so much from the past
- I'll remain forever young

e---------------------------------|
B----3-3-5-6--5-6-8--6-5-6-5-3----|
G---------------------------------|
D---------------------------------| 4x
A---------------------------------|
D---------------------------------|

e-------------------------------------|
B-------------------------------------|
G-------------------------------------|
D----0~~~~~0-3~~~~~3-5~~~~~5-8~~~~~8--| repaet 4x
A----0~~~~~0-3~~~~~3-5~~~~~5-8~~~~~8--|
D----0~~~~~0-3~~~~~3-5~~~~~5-8~~~~~8--|

verse:Both PM
e-----------------------------------------------------|
B-----------------------------------------------------|
G-----------------------------------------------------|
D----0~0~0~0~0~0-3~3~3~3~3~3-5~5~5~5~5~5-8~8~8~8~8~8--| x4
A----0~0~0~0~0~0-3~3~3~3~3~3-5~5~5~5~5~5-8~8~8~8~8~8--|
D----0~0~0~0~0~0-3~3~3~3~3~3-5~5~5~5~5~5-8~8~8~8~8~8--|
       ^ ^ ^ ^ ^   ^ ^ ^ ^ ^   ^ ^ ^ ^ ^   ^ ^ ^ ^ ^
It's not my age it's what I really know
I can never be content
My commitment can't be measured because
I'll remain forever young
Witness the hourglass
slowly nearing it's final grain
A lifetime to remember
I'll remain forever young

e--------------------------------------|
B--------------------------------------|
G--------------------------------------|
D-----3-3-0-3-5~5~5~5~-8-8-8-8-8-8-8---| 4x
A-----3-3-0-3-5~5~5~5~-8-8-8-8-8-8-8---|
D-----3-3-0-3-5~5~5~5~-8-8-8-8-8-8-8---|

I control the hands of time- much to the majority's dismay
If you'd leave me behind- I'm a picture painted in black and gray
But my colors are inside- when it's just too difficult to see
And I just feel alive- this means so much to me

e----------------------------------------|
B-----------6------6---------------------|
G-----------7------7---------------------|
D------0-0-----0-0-----3-3-5-5~~~~~x-----| 4x
A------0-0-----0-0-----3-3-5-5~~~~~x-----|
D------0-0-----0-0-----3-3-5-5~~~~~x-----|
       ^ ^     ^ ^
Young!! Young!! - holding on and taking grasp
- a vow that I will last
- I've learned so much from the past
- I'll remain forever young

e-------------------------------------|
B-------------------------------------|
G-------------------------------------| x4
D----0~~~~~0-3~~~~~3-5~~~~~5-8~~~~~8--|
A----0~~~~~0-3~~~~~3-5~~~~~5-8~~~~~8--|
D----0~~~~~0-3~~~~~3-5~~~~~5-8~~~~~8--|

When the rain has already stopped
welcoming the sunshine's warmth
ill remain forever young
In a world where right is wrong
When the fountain has already dried
ill remain forever young
in the end we should decide
We'll sing the song they have'nt sung-
I'll remain forever young

e---------------------------------|
B----3-3-5-6--5-6-8--6-5-6-5-3----|
G---------------------------------| x4
D---------------------------------|
A---------------------------------|
D---------------------------------|
PM
e-----------------------------------------------------|
B-----------------------------------------------------|
G-----------------------------------------------------|
D----0~0~0~0~0~0-3~3~3~3~3~3-5~5~5~5~5~5-8~8~8~8~8~8--| x4
A----0~0~0~0~0~0-3~3~3~3~3~3-5~5~5~5~5~5-8~8~8~8~8~8--|
D----0~0~0~0~0~0-3~3~3~3~3~3-5~5~5~5~5~5-8~8~8~8~8~8--|
       ^ ^ ^ ^ ^   ^ ^ ^ ^ ^   ^ ^ ^ ^ ^   ^ ^ ^ ^ ^
When the well has already dried
and the only option is to die
We will dig and find the source
ill remain forever young
let it seep into our pores
Though jaded and mundane
the forgotten and unnamed
This is my requiem-
I'll remain forever young


END........... oki na yan......... kayo na bahala mag dagdag...pakirate nlng mga 
thanx!
salamat nga pala kay Gotheng at nakakuha ako ng idea tsup tsup tsup heheh...





Comments


Popular Valley Of Chrome tabs & chords
Conquering Hades Tabs
Dasal Intro Tabs
Extinction Agenda Intro Tabs
Forever Young Tabs
Forever Young 1 Tabs
Forever Young 3 Tabs
Love And Devotion 1 Tabs
Love And Devotion 3 Tabs
Pangako Tabs
When Everthing Turns To Dust Tabs


Song lyrics



↑ Back to top | Tablatures and chords are parodies/interpretations of the original songs. You may use it for private study, scholarship, research or language learning purposes only
© 2014 AZChords.com Contact us | Privacy policy | DMCA | Add/correct tabs | Request tabs | Top 50 tabs