» » »

Vernal Equinox Tabs (ver.1)

Artists:  A B C D E F G H I J K L M N O P Q R S T U V W X Y Z # 

Vernal Equinox Tabs (ver.1)

Valient Thorr
Rating:
0/5 (0 votes)

Hard to play? Try these video lessons and learn fast.
                "am I alone on that one?"

|---------|---------------------------|     |------------------------|
|---------|---------------------------|     |------------------------|
|---------|----------------------6-7/-| x4  |-------------------6-7/-| x1
|-x-x-x-x-|-2-2-2--------2-------6-7/-|     |-2-2-------2p0-----6-7/-|
|-x-x-x-x-|-2-2-2----------------4-5/-|     |-2-2-----------2p0-4-5/-|
|-x-x-x-x-|-0-0-0-3p1p0----0h3p0------|     |-0-0-3p1p0--------------|

|---------------------------|
|---------------------------|
|----------------------6-7/-| x3
|-2-2-2--------2-------6-7/-|
|-2-2-2----------------4-5/-|
|-0-0-0-3p1p0----0h3p0------|

|-------------------------------|
|---------------0---0----0---0--|
|---4-4-4-----------------------|
|-2-5-4-2-0h2s4---4----4---4----|
|-2----------------5--5-5-5-5-5-|
|-0-----------------------------|

|----------------------------------------------|     |-0---| (this plays
|----------------------------------------------|     |--0--| after the last
|----------------------------------------------|     |---3-| three notes 3x)
|-2-x-x-2-x-x---------x-x-2-x-x----------------|x8
|-2-x-x-2-x-x-------5-x-x-2-x-x-------5--------|
|-0-x-x-0-x-x-0h3h5---x-x-0-x-x-0h3h5----0-3-5-|

|--------------|
|--------------|
|-------9\-----| x2
|-2-2-x-9\-5-7-|
|-2-2-x-7\-5-7-|
|-0-0-x----3-5-|

|-7-|
|-7-| this is the very last thing you strum.
|-4-|
|-4-|
|-5-|
|---|
            
Hard to play? Try these video lessons and learn fast. | Correct




comments powered by Disqus
↑ Back to top | Tablatures and chords are parodies/interpretations of the original songs. You may use it for private study, scholarship, research or language learning purposes only