» » »

Fall Of Pangea Bass tabs (ver.1)

Artists:  A B C D E F G H I J K L M N O P Q R S T U V W X Y Z # 

Fall Of Pangea Bass tabs (ver.1)

Valient Thorr
Rating:
0/5 (0 votes)

Tabs too difficult? Try these video lessons and learn fast.
                this is my first tab. hope its good.


INTRO
|------------------------------------------|
|------------------------------------------|
|0------------------------0----------------|
|----------------2----3--------------------|
repeat 4 times
 
PACE INCREASE
|------------------------------------------|
|------------------------------------------| 
|0-0--00-0--00-0--0------------------------|  
|------------------2-23--------------------|   
repeat 4 times                                  
                                                 
VOICE ENTERS          
|------------------------------------------|     
|------------------------------------------|     
|0-0--00-0--00-0--0------------------------|     
|------------------2-23--------------------|     
repeat 4 times                                   

PRE-CHOURUS                                       
|------------------------------------------|     
|------------------------------------------|    
|3-----------5--0--------------------------|   
|------------------------------------------|  
repeat 2 times

PACE INCREASE
|------------------------------------------|
|------------------------------------------| 
|0-0--00-0--00-0--0------------------------|  
|------------------2-23--------------------|   
repeat 4 times 

PRE-CHOURUS                                       
|------------------------------------------|     
|------------------------------------------|    
|3-----------5--0--------------------------|   
|------------------------------------------|  
repeat 2 times

CHOURUS
|---------------------------------------------------------|    
|---------------------------------------------------------|
|0-------0000-------00003--00000--00003--00000--0000------|
|---------------------------------------------------2--3--|
repeat 4 times

GUITAR SOLO [SLOW PART]
|--------------------|    
|--------------------|
|5x--3x--0x--3x--5x3x|
|--------------------|
repeat 12 times

GUITAR SOLO [FAST PART]
|---------------|
|---------------|
|5--3--0--3--5-3|
|---------------|
repeat 4 times

CHOURUS
|---------------|
|---------------|
|5--3--5--3--5-3|
|---------------|
repeat 4 times

this is all i had time for... more to come, srry
            
Tabs too difficult? Try these video lessons and learn fast.




comments powered by Disqus
↑ Back to top | Tablatures and chords are parodies/interpretations of the original songs. You may use it for private study, scholarship, research or language learning purposes only