» » »

Valens Richie, We Belong Together Tabs (ver.1)

Artists:  A B C D E F G H I J K L M N O P Q R S T U V W X Y Z # 

We Belong Together Tabs (ver.1)

Valens Richie Tabs
Rating:
0/5 (0 votes)
We Belong Together lessons Tabs too difficult? Try these video lessons and learn fast
                PROPS GO TO: Bolko

We Belong Together - Richie Valens


---------------------------

Heavy Triplet Feel

Intro:


E------------------------------------------------
B---6---6-6--------------------------------------
G---5h7-7-5-2------------------------------------
D------------------------------------------------
A------------------------------------------------
E------------------------------------------------

Verse riff:

    F           Dm        Gm        C

E------------------------------------------------
B------------------------------------------------
G--------0-2-----------0--0h2p0------------------
D---3--3-----0--0-2-3-----------------0-2--------
A-------------------------------3---3------------
E------------------------------------------------

Last time, into bridge:

E------------------------------------------------
B--------------------------3---------------------
G--------0-2-3---3-2-0-----1---------------------
D---3--3---------------3---3---------------------
A--------------------------1---------------------
E------------------------------------------------

Bridge: (not perfect, but close)

   Bb       Bbm    F                            

E--1--------1------5---6-6-6-6-5-----------------
B--3--------2------6-------------6--4-4-4--4-3---
G--3--------3------5---------------------------3-
D--3--------3------------------------------------
A--1--------1------------------------------------
E------------------------------------------------

   Bb       Bbm    G7     C

E--1--------1------3------3----------------------
B--3--------2------3------5----------------------
G--3--------3------4------5--5-5-5-3-3-3-2-2-2-0-
D--3--------3------3------5----------------------
A--1--------1------5------3----------------------
E------------------3-----------------------------

back to Verse riff until end
            

comments powered by Disqus
↑ Back to top | Valens Richie Tabs for We Belong Together. Lyrics for acoustic guitar and electric guitar. Tablatures and chords are parodies/interpretations of the original songs. You may use it for private study, scholarship, research or language learning purposes only