» » »

La Bamba Tabs (ver.1)

Artists:  A B C D E F G H I J K L M N O P Q R S T U V W X Y Z # 

La Bamba Tabs (ver.1)

Valens Richie
Rating:
0/5 (0 votes)

Hard to play? Try these video lessons and learn fast.
                PROPS GO TO: James Bazik

Guitar
e|------------------------------------------------------
B|------------------------------------------------------
G|------------------2-0---------------------------------
D|-----------0-2-3------------------------------------0-
A|----0-2-3--------------0-2-3-3-2-0-------0-2-3-3-2-0---
E|-3----------------------------------3------------------
              
              Repeat a couple of times
e|--------------------------------------------------
B|--------------------------------------------------
G|----------2-0---------------------2-0-------------
D|---0-2-3------0-2-3-3-2-0---0-2-3-----0-2-3-3-2-0-
A|-3------------------------3-----------------------
E|--------------------------------------------------

e|-----------------------------------------------------------------
B|-----------------------------------------------------------------
G|-2--0--2---------------------------------------------------------
D|---------5-3-2-3-5-7-5-3-2-3-5------5-3-2-2----2-2-2-2-3-3-3-3-5-
A|-----------------------------------------------------------------
E|-----------------------------------------------------------------

e|-----------------------------------------------------------
B|-----------------------------------------------------------
G|-------------2-0-2-0-2-0-2-0-2-0-2-0-----------------------
D|-7-5-3-3-2-3-------------------------5-3-2-3-5-7-5-3-2-3-5-
A|-----------------------------------------------------------
E|-----------------------------------------------------------

e|---------------------------------------------------------------------------
B|---------------------------------------------------------------------------
G|---------2-0-0-0-0-0-0-0-2-0-2-0-2-0---------------------------------------
D|---0-2-3-----------------------------5-3-2-3-5-7--2-0----------------------
A|-3----------------------------------------------------3-2-3-5----5-5-5-5-5-
E|---------------------------------------------------------------------------
                     This is the solo in the middle of song

e|--------------------------------------------------
B|--------------------------------------------------
G|----------2-0---------------------2-0-------------
D|---0-2-3------0-2-3-3-2-0---0-2-3-----0-2-3-3-2-0-
A|-3------------------------3-----------------------
E|--------------------------------------------------

e|--------------------------------------------------
B|--------------------------------------------------
G|----------2-0---------------------2-0-------------
D|---0-2-3------0-2-3-3-2-0---0-2-3-----0-2-3-3-2-0-
A|-3------------------------3-----------------------
E|--------------------------------------------------

e|--------------------------------------------------
B|--------------------------------------------------
G|----------2-0---------------------2-0-------------
D|---0-2-3------0-2-3-3-2-0---0-2-3-----0-2-3-3-2-0-
A|-3------------------------3-----------------------
E|--------------------------------------------------
            
Hard to play? Try these video lessons and learn fast. | Correct




comments powered by Disqus
↑ Back to top | Tablatures and chords are parodies/interpretations of the original songs. You may use it for private study, scholarship, research or language learning purposes only