» » »

Space Between Tabs (ver.2)

Artists:  A B C D E F G H I J K L M N O P Q R S T U V W X Y Z # 

Space Between Tabs (ver.2)

Valencia
Rating:
5/5 (5 votes)

Hard to play? Try these video lessons and learn fast.
                                          VALENCIA - THE SPACE BETWEEN
=============================================================================
Any questions?

This might seem confusing but it took forever to tab, to be exact about 6 hours, but 
play as follows, line up both guitars. Listen with closely if it doesnt make sense and 
it will make more sense for you


KEY

*= palm mute
/= slide up
\= slide down
X= finger mute
.= pinch harmonic
h= hammer on
p= pull off
b= bend
~= let ring


                   INTRO AND VERSE 1

Guitar 1 ( In clean channel with some type of sustain)

 0:01-0:06                            0:06-0:12

 E|-----5-------5-----|    |-----2--------2-----|
 B|---3--3-3--3--3-3--|    |---3--3-3--3-3-3-3--|
 G|--0-0--0--0-0--0---| X2 |--0-0--0--0-0---0---| X2
 D|-0-------0---------|    |-0-------0----------|
 A|-------------------|    |--------------------|
 E|-------------------|    |--------------------|


Guitar 2 (Distortion w/ light gain)  0:11-0:12
 E|---------------------|
 B|---------------------|
 G|---------------------|
 D|--9-\----------------|
 A|--9-\----------------|
 E|--7-\----------------|

 Guitar 1            0:13-0:17                           0:18-0:23

 E|-----5-------5-----|    |-----2-------2-----|
 B|---3--3-3--3--3-3--|    |---3--3-3--3--3-3--|
 G|--0-0--0--0-0--0---| X2 |--0-0--0--0-0--0---| X2
 D|-0-------0---------|    |-0-------0---------|
 A|-------------------|    |-------------------|
 E|-------------------|    |-------------------|


                   0:24-0:29
 E|-----5-------5-----|
 B|---3--3-3--3--3-3--|
 G|--0-0--0--0-0--0---| X2
 D|-0-------0---------|
 A|-------------------|
 E|-------------------|

Guitar 2 ( clean channel)

                  0:18-0:22
 E|------------------------------------------------------|
 B|----------10-------------10------------10-------------|
 G|-------11----11-------11----11------11----11-12-11----|
 D|-0-0-0----------0-0-0---------0-0-0----------------12-|
 A|------------------------------------------------------|
 E|------------------------------------------------------|

                 0:22-0:29
 E|--------------------------------------------------------|
 B|-----------12------------ 12-------------12----12-14-15-|
 G|--------14----14-------14----14-------14----14----------|
 D|-0-0-0-----------0-0-0----------0-0-0-------------------|
 A|--------------------------------------------------------|
 E|--------------------------------------------------------|

Guitar 1

                 0:29-0:34
   E|-----2-------2---5---5-------------|
   B|---3--3-3--3-------7---7-7h8p7-----|
   G|--0-3--0--0-0------------------7---|
   D|-0-------0-------------------------|
   A|-----------------------------------|
   E|-----------------------------------|

Guitar 2         0:29-0:34

   E|-------------------------------------------|
   B|------10------10----10----10---------------|
   G|---11----11------11----11----11h12p11------|
   D|-0----------0-------------------------12---|
   A|-------------------------------------------|
   E|-------------------------------------------|


            VERSE 1 CONTINUED

Guitar 1 & 2 (distortion)    0:35-0:51

E|----------------------------------------------|
B|----------------------------------------------|
G|--7-------------------7-----------------------|
D|--7-X-16--5-----XXXX--7-X-16--5---------------|
A|--5-------5-X-8-XXXX--5-------5-X-8-----------|
E|----------3-----XXXX----------3---------------|


Guitar 1  0:51-0:53

E|---------------|
B|---------------|
G|-9--11-9--7----|
D|-X--X--X--X----|
A|-7--9--7--5----|
E|---------------|

Guitar 2  0:51-0:53

E|---------------|
B|---------------|
G|-9--7--9--11---|
D|-X--X--X--X----|
A|-7--5--7--9----|
E|---------------|


                     CHORUS

Guitar 1    (0:54-1:17)

E|--------------------------------------------------------------------|
B|--------------------------------------------------------------------|
G|--7---------------------------7---------------6/77-X-6-77-X-6/77777-|
D|--7X-8--5-----99--x7x--5------7x-8--5---------X-XX-X-X-XX-X-X-XXXXX-|repeat
A|--5-----5X-8--99--x7x--5x-4---5-----5-X-8-----4/55-X-4/55-X-4/55555-|x1
E|--------3-----77--x5x--3------------3-------------------------------|

Guitar 2    (0:54-1:17)

E|--------------------------------------------------------------------|
B|--------------------------------------------------------------------|
G|--7-------6/7----7-----------6/7------------------------------------|
D|--x-X-22--X-X----x-X-22------X-X------------------------------------|repeat
A|--5-------4/5----5-----------4/5-----------7-9-7-5-7-9-7-5-7-9-7-55-|x1
E|--------------------------------------------------------------------|


            VERSE 2


Guitar 1  1:18-1:41

E|------------------------------------------------------------------------|
B|------------------------------------------------------------------------|
G|-7------7-7---------------7------77-7-7-7-7-7-----------7---------------|
D|-7-x-4--x-7-x-16--5-------7-x-35-77-x-x-x-x-x--5-5------7-x-35----------|
A|-5------5-5-------5-x-16--5------55-5-5-5-5-5--5-5-x16--5---------------|
E|------------------3----------------------------3-3----------------------|
            *       *       *      **              *


Guitar 2  1:18-1:41

E|--------------------------------------------------------------end-------|
B|-----------------------------------7h8p7------------------------with----|
G|-----------------------77\6/77-7-7------h9p7-------repeat-all-------b7--|
D|--------7--8\7-6/7\6/7-xx-x-xx---------------7/8\7-necessary------------|
A|7h9p7\5-5--6\5-4/5\4/5-55\4/55---------------5/6\5----------------------|
E|------------------------------------------------------------------------|
                                 . . . . .                             .


               PRE-CHORUS


Guitar 1  1:41-1:47

E|--------------------------------------------------------------------|
B|--------------------------------------------------------------------|
G|--------------------------------------------------------------------|
D|--9-~~~~~~~~~~~~~~~~~~~~~~~~~~~~5~~~~~~~~~~~~~~~~~~~~~~~~-----------|
A|--9-~~~~~~~~~~~~~~~~~~~~~~~~~~~~5~~~~~~~~~~~~~~~~~~~~~~~------------|
E|--7-~~~~~~~~~~~~~~~~~~~~~~~~~~~~3~~~~~~~~~~~~~~~~~~~~~~~~-----------|

Guitar 2  1:41-1:47

E|--------------------------------------------------------------------|
B|------------------------------------------7-7-------------7-7-------|
G|---------7-7-------------7-7----------------------------------------|
D|-7-7-9-9-----9-9-7-7-9-9-----9-9--7-7-9-9-----9-9-7-7-9-9-----9-9---|
A|--------------------------------------------------------------------|
E|--------------------------------------------------------------------|
   * * * * * * * * * * * * * * * *  * * * * * * * * * * * * * * * *


Guitar 1 (1:47-1:51)

E|--------------------------------------------------------------------|
B|--------------------------------------------------------------------|
G|--------------------------------------------------------------------|
D|--9-~~~~~~~~~~~~~~~~~~~~~~~~~~~~5---------9\------------------------|
A|--9-~~~~~~~~~~~~~~~~~~~~~~~~~~~~5-X-16----9\------------------------|
E|--7-~~~~~~~~~~~~~~~~~~~~~~~~~~~~3---------7\------------------------|
                                  *
Guitar 2  (1:47-1:51)

E|--------------------------------------------------------------------|
B|---------------------------------------7-7-----7-7-----7-7-----7-7--|
G|---------7-7-------------7-7-------7-7-----7-7-----7-7-----7-7------|
D|-7-7-9-9-----9-9-7-7-9-9-----9-9------------------------------------|
A|--------------------------------------------------------------------|
E|--------------------------------------------------------------------|
   * * * * * * * * * * * * * * * *   * * * * * * * *


                        CHORUS

Guitar 1    (1:57-2:14)

E|--------------------------------------------------------------------|
B|--------------------------------------------------------------------|
G|--7---------------------------7---------------6/77-X-6-77-X-6/77777-|
D|--7X-8--5-----99--x7x--5------7x-8--5---------X-XX-X-X-XX-X-X-XXXXX-|repeat
A|--5-----5X-8--99--x7x--5x-4---5-----5-X-8-----4/55-X-4/55-X-4/55555-|x1
E|--------3-----77--x5x--3------------3-------------------------------|

Guitar 2    (1:57-2:14)

E|--------------------------------------------------------------------|
B|--------------------------------------------------------------------|
G|--7-------6/7----7-----------6/7------------------------------------|
D|--x-X-22--X-X----x-X-22------X-X------------------------------------|repeat
A|--5-------4/5----5-----------4/5-----------7-9-7-5-7-9-7-5-7-9-7-55-|x1
E|--------------------------------------------------------------------|

               BRIDGE

Guitar 1   (2:15-2:30)

E|----------------------------------------------------------------------|
B|----------------------------------------------------------------------|
G|----------------------------------------------------------------------|
D|-999-x7x-5--2-------999-x7x-5--2--------------------------------------|
A|-999-x7x-5--2-x-16--999-x7x-5--2-x-35---------------------------------|
E|-777-x5x-3--0-------777-x5x-3--0--------------------------------------|
              *                  *

Guitar 2    (2:15-2:30)


E|--------------------------------------------------------------------|
B|-------7h8------7h8p7-----------------------------------------------|
G|-----7-----7--------------------------------------------------------|
D|-7h9---------7-9------repeat-3 times during palm muting-------------|
A|--------------------------------------------------------------------|
E|--------------------------------------------------------------------|
               * *

Repeat Itro, slower tempo from times (2:30-2:56)

End with

Guitar 1 (2:54-2:56)

E|--5-----------------|
B|-----3--------------|
G|--------------------|
D|---------0----------|
A|--------------------|
E|--------------------|

Guitar 2 (2:54-2:56)

E|--------------------|
B|--------------------|
G|-14-14--------------|
D|--------12----------|
A|--------------------|
E|--------------------|


                         OUTRO/ENDING

Guitar 1 (2:57-3:20) Slow strumming

E|--------------------------------------------------------------------|
B|--------------------------------------------------------------------|
G|--7--------------------7--------------------------------------------|
D|--7--x-8----5----------7--x--8-----5--------------------------------|
A|--5---------5--x--8----5-----------5--x--8--------------------------|
E|------------3----------------------3--------------------------------|


Guitar 2 (2:57-3:20)

E|--------------------------------------------------------------------|
B|--------------------------------------------------------------------|
G|--7------9------11------12---------11--------9----------------------|
D|--x-X-4--x-x-4--x-x-2---x--x-2-----x--x-2----x--x-2-----repeat-this-|
A|--5------7------9-------10---------9---------7--------riff--8-times-|
E|--------------------------------------------------------------------|


Guitar 1 (3:21- End)

E|--------------------------------------------------------------------|
B|--------------------------------------------------------------------|
G|-7~~~~~~~~~~~~~~~~~~~~~7~~~~~~~~~~~~~~~~~~7~~~~~~~~~~~~~~~~~~~~~~~~~|
D|-7~~~~~~~~~~~~~~~~~~~~~7~~~~~~~~~~~~~~~~~~7~~~~~~~~~~~~~~~~~~~~~~~~~|
A|-5~~~~~~~~~~~~~~~~~~~~~5~~~~~~~~~~~~~~~~~~5~~~~~~~~~~~~~~~~~~~~~~~~~|
E|--------------------------------------------------------------------|


Guitar 2 (3:21- End)

E|--------------------------------------------------------------------|
B|-------------7h8----------------7h8---------------------------------|
G|---7-9-7---9-----7---7-9-7----9-----7---7~~~~~~~~~~~----------------|
D|-0-------0---------0--------0---------0-----------------------------|
A|--------------------------------------------------------------------|
E|--------------------------------------------------------------------|
            
Hard to play? Try these video lessons and learn fast. | Correct




comments powered by Disqus
↑ Back to top | Tablatures and chords are parodies/interpretations of the original songs. You may use it for private study, scholarship, research or language learning purposes only