» » »

Valencia, Dana Leigh Tabs (ver.1)

Artists:  A B C D E F G H I J K L M N O P Q R S T U V W X Y Z # 

Dana Leigh Tabs (ver.1)

Valencia Tabs
 Rating:
4/5 (4 votes)
Dana Leigh lessons Tabs too difficult? Try these video lessons and learn fast
                ----------------------------------------------------------------------------
                             Dana Leigh – Valencia
----------------------------------------------------------------------------

Tuning: standard 

Here is the intro. You can play with playing both strings on those certain parts,
you can just play the note on the d string and that works too.
But the song I think plays both, 
idk I didnt spend too much time on this tab.

e|--------0-----------0----------------0-----------0---------------------|
B|----------0-----------0----------------0-----------0-------------------|
G|--4-2-------2-4-2-------2---2--4-2-------2-4-2-------2---2-------------|
D|--4---4-------4---4-------4----2---2-------2---2-------2---------------|
A|-----------------------------------------------------------------------|
E|-----------------------------------------------------------------------|

Didnt really look in to this but try this.

 
   I sit here and I think about, all the times that I havent had
e|---0----------------------------0-----------------0---------0------|
B|---0----------------------------0-----------------0---------0------|
G|---2----------------------------2-----------------4---------2------|
D|---4----------------------------2-----------------4---------4------|
A|---4----------------------------0-----------------2---------4------|
E|---0----------------------------0-----------------0---------0------|

    And I pray that angels led you in 
e|---------0----------------0-----------|
B|---------0----------------0-----------|
G|---------2----------------4-----------|
D|---------2----------------4-----------|
A|---------0----------------2-----------|
E|---------0----------------0-----------|

    Your pictures by my side I keep memories in my head I see it 
e|--------0---------------------------0-------------0---------0---|
B|--------0---------------------------0-------------0---------0---|
G|--------2---------------------------2-------------4---------2---|
D|--------4---------------------------2-------------4---------4---|
A|--------4---------------------------0-------------2---------4---|
E|--------0---------------------------0-------------0---------0---|

    well... I hope your at...
e|----0--------0--------------|
B|----0--------0--------------|
G|----2--------4--------------|
D|----2--------4--------------|
A|----0--------2--------------|
E|----0--------0--------------|
            
Submit corrections

comments powered by Disqus
↑ Back to top | Valencia Tabs for Dana Leigh. Lyrics for acoustic guitar and electric guitar. Tablatures and chords are parodies/interpretations of the original songs. You may use it for private study, scholarship, research or language learning purposes only