» » »

Vai Steve, Windows To The Soul Tabs (ver.1)

Artists:  A B C D E F G H I J K L M N O P Q R S T U V W X Y Z # 

Windows To The Soul Tabs (ver.1)

Vai Steve Tabs
 Rating:
4/5 (4 votes)
Windows To The Soul lessons Tabs too difficult? Try these video lessons and learn fast
1
                --17--15-13-15-17----15-13-17-15---13-10-8/10----17-20-22-22/20--20/17--------
                                                                              

--15-13-17-15----13-10-8/10---------------------------------------------------
                                                                              

------------------------------------------------------------|-----------------
------------------------------------------------------------|-----------------
---14b---14--12---12-14-------------------------------------|-----------------
-------------------------14----14-12-10-10h12---12^p10------|--12^p10---------
-------------------------------------------------------12---|---------12-10---
------------------------------------------------------------|-----------------
                                                                              

----10--------------------10-12-14-15-14---12--14h17p14--12-------------------
-------12-12--------10-12-----------------------------------------------------
-12---------------------------------------------------------------------------
                                                                              

---------------17----------------15-------------------------------------------
------------17-----17--14----17-----16---16h17p16-14-----14/16----17/16-14----
---------19-------------------------------------------17----------------------
------19----------------------------------------------------------------------
---17-------------------------------------------------------------------------
                                                                              

-------------------------17---------------15----------------------------------
-12-12/14-------------17-----17--14----17----16--16h17p16h17p16--14-----------
-------------------19-----------------------------------------------17--------
----------------19------------------------------------------------------------
-------------17---------------------------------------------------------------
                                                                              

-----15--17----15----------21--22---------------------------------------------
--17--------------17----23----------------------------------------------------
                                                                              

--22b---22-20----20h22--------------------------------------------------------
-----------------------21---19--17--17h19----19b--19--17----17----------------
---------------------------------------------------------17----19-17h17-------
            
Submit corrections

comments powered by Disqus
↑ Back to top | Vai Steve Tabs for Windows To The Soul. Lyrics for acoustic guitar and electric guitar. 1 Tablatures and chords are parodies/interpretations of the original songs. You may use it for private study, scholarship, research or language learning purposes only