>
 >
Warm Regards

Warm Regards Guitar Tabs

Vai Steve - Warm Regards chords, tabs, tablatures, lyrics

Guitar lessons | Add/correct | Request | Top 50 tabs Artists:  A B C D E F G H I J K L M N O P Q R S T U V W X Y Z 0-9

Warm Regards Guitar Tabs – Vai Steve

CD, Sheet music, Poster

Do you like Warm Regards? Share with your friends now
Tabs
All the guitar and/or sitar parts are as detailed and precise as it can get.
I will post what each guitar does one after another so you might have some compilating and scrolling down to do! You have to read the tabs and the different guitars as a compilation. Each bar plays at the same time. Not “AFTER” the example; guitar 1.

So you give each guitar part to each guitarist and play at the same time depending on what you see… just to clear things up. Same applies with all my other Tabs.
Enjoy.


                                                                           
E||--------------|------------------|------------------|------------------|
B||--------------|------------------|------------------|------------------|
G||--------------|------------------|------------------|------------------|
D||--------------|------------------|------------------|------------------|
A||--------------|------------------|------------------|------------------|
E||--------------|------------------|------------------|------------------|


                                                                            
------------------|------------------|------------------|------------------|
------------------|------------------|------------------|------------------|
------------------|------------------|------------------|------------------|
------------------|------------------|------------------|------------------|
------------------|------------------|------------------|------------------|
------------------|------------------|------------------|------------------|


                                                         
------------------|------------------|------------------|
------------------|------------------|------------------|
------------------|------------------|------------------|
------------------|------------------|------------------|
------------------|------------------|------------------|
------------------|------------------|------------------|


                                                                            
-------------------------|------------------------|------------------------|
-------------------------|------------------------|------------------------|
------7/9------9-9/10/9--|--9---------------------|-------7/9---9---9-9r---|
-------------------------|-----9-9/-5/-9--------9/|--8---------------------|
-------------------------|------------------------|------------------------|
-------------------------|------------------------|------------------------|


                                                     
-------------------------|--------------------------|
-------------------------|--------------------------|
--7-7-7-7--7/9/5---------|-----7-7-7/9/5------------|
-------------------------|-------------------5/7/5--|
-------------------------|--------------------------|
-------------------------|--------------------------|


                                                           
----------------------------|-----------------------------|
----------------------------|-----------------------------|
-----7-7/9--9r--7-----------|-----7-7-7-9--9r----12r---10-|
------------------10-8/10---|-----------------------------|
----------------------------|-----------------------------|
----------------------------|-----------------------------|


                                                                                
----------------------------|-----------------------|--------------------------|
-------------13h--10--------|-----------------------|--------------------------|
--12~----------------12-10--|--9/-7-----------5-5-5-|------19b------21-22h-21--|
----------------------------|-----------------------|--------------------------|
----------------------------|-----------------------|--------------------------|
----------------------------|-----------------------|--------------------------|


                                                          
------------------------------|--------------------------|
------------------------------|--------------------------|
--21--------------------------|--------19b------21-21r---|
------21-21--17--21--------21-|--20----------------------|
------------------------------|--------------------------|
------------------------------|--------------------------|


                                                                                
--------------------------------------------|----------------------------------|
---------------------------20---------------|----------------------------------|
--19-19-19-19--19/21/17----------17---------|-----19-19-19-21-17---------------|
------------------------------19-------17~--|------------------------17-19-17--|
------------------------------------15------|----------------------------------|
--------------------------------------------|----------------------------------|


                                                                     
----------------------------------|---------------------------------|
----------------------------------|------------------------20r---18-|
-----19-19-21--21r--19------------|-----19-19-19-21-21b-------------|
-----------------------22-20-22---|---------------------------------|
----------------------------------|---------------------------------|
----------------------------------|---------------------------------|


                                                                              
-------------20/--17----------|--------------17------------------------------|
--20~----------------20-18h17-|--17--15-15---------15------------------------|
------------------------------|-----------------14-------14----12--------5/7/|
------------------------------|-----------------------12-----------------x---|
------------------------------|-----------------------------10------10/5-3/5/|
------------------------------|-----------------------------------8----------|


                                                                                
-------------------|-----------x-x-x-x-x----3/|--20-19-----14b-----15h-17--15--|
-------------------|--------------------------|--------0-----------------------|
--5----------------|--------------------------|----------0---------------------|
-------------------|--------------------------|--------------------------------|
--3----------------|--------------------------|--------------------------------|
-------------------|--------------------------|--------------------------------|


                                                       
-------------------------|--------14b-----15--17--15--|
--17r------15~-------15r-|----------------------------|
-------------------------|--17------------------------|
-------------------------|----------------------------|
-------------------------|----------------------------|
-------------------------|----------------------------|


                                                                              
--14-15-14-15-14-15b-15b--------|--17r--15---------15--15-17-20-17-20-17-----|
--------------------------------|----------18b-------------------------------|
--------------------------------|--------------------------------------------|
--------------------------------|--------------------------------------------|
--------------------------------|--------------------------------------------|
--------------------------------|----------------------------------------17/-|


                                                                         
-----------------------------17----19----|--21r-----21--21--19----------|
----------------7-10---15-------15----17-|----------------------19--17--|
--------------7------9----14-------------|------------------------------|
------------7----------------------------|------------------------------|
----2-5-7-9------------------------------|------------------------------|
--0--------------------------------------|------------------------------|


                                           
------------------------------------------|
--15r------17-15-14-----------------------|
--------------------16-14--12-14-12-11----|
---------------------------------------12-|
------------------------------------------|
------------------------------------------|


                                        
-------------------------------------9/|
-----------------8-12/10----------10---|
---------------7---------------11------|
--14---------9---------------9---------|
----------10---------------------------|
---------------------------------------|


                                                         
--17-14--17-14-----------------------------12/19-17-----|
---------------15-----------------------12--------------|
------------------16-----------------12-----------------|
---------------------14/12--------12--------------------|
-------------------------------14-----------------------|
----------------------------15--------------------------|


                                                  
--14---12-10-----14--14-12-10--10-12-14-15-14-12-|
-------------------------------------------------|
-------------------------------------------------|
-------------------------------------------------|
-------------------------------------------------|
-------------------------------------------------|


                                                                                
--10-12-15-12-15-12-10----------------10-14-17-15-10----------------------------
-----------------------14-15-14-10-14----------------14-17-14-10-14-14-17-14-17-


                                                                                
--17-14-10-------------10-14-17-14-17-14-10-------10-14-19-14-17-14-15-14-17-14-
-----------17-13-10-13----------------------10-13-------------------------------


                                                                                
-----------10----------10----------10-----------------------10-13---------------
--13-10-13b---13-10-13b---13-10-13b---13-10----10-13-10-----------10-13b-13-10--
--------------------------------------------12----------12b--------------------1


                                                                     
-------------------------------------|------------------------------|
-----12r---10------------------------|--------------10-8--7---------|
--------------12-11------------------|----------7-9---------9-9r-7--|
--------------------10---------------|------7-7---------------------|
-----------------------12-10-9r---5--|----5-------------------------|
-------------------------------------|------------------------------|


                                                                  
------15b---15-14-12---------------------------------------------|
---------------------15-13-12-13-12------------------------------|
------------------------------------14-12-11b--------------------|
----0------------------------------------------14-12-------------|
----0------------------------------------------------12-14-10-10/|


                                 
--------------------------------|
--------------------------------|
--------------------------------|
--------------------------------|
--9---------10-9-10-9-10-12---7-|
--------------------------------|


                                                                                
-------------------------------------------10-10-------15-15-------17-17-------1
-------------------------------12-12-------------12-12-------12-12-------15-15--
-------------------12-12-------------12-12--------------------------------------
-----9-9-12-12-9-9-------12-12--------------------------------------------------
--10----------------------------------------------------------------------------


                                                                  
--------------------------|--------------------------------------|
---------------20---------|--------------------------------------|
--19b------19r----19r-----|--21----------------------------------|
--------------------------|------21--21--21-17--17-21--17--21----|
--------------------------|--------------------------------------|
--------------------------|--------------------------------------|


                                    
---------3-------3---------3-------|
-----------3-5r--3-5-3-------6-3-5r|
---------------------0-5b----------|
--20-------------------------------|
-----------------------------------|
-----------------------------------|


                                                                       
--------------------------------------------|-------------------------|
---3---3------------------------------------|-------------------------|
-----5---5-3-5-3-0-5b-5/14/5----------------|-------------------------|
------------------------------5-3-----------|-------------------------|
----------------------------------3-1-3--3--|-----5-5-5b-3---1--------|
--------------------------------------------|------------------3-3r---|


                                                            
--------------------------|--------------------------------|
--------------------------|--------------------6-------8---|
--------------------------|------------5---3-0---0-9-0---0-|
--------------------------|--------3-0---5-----------------|
-----3-5-7----7r-5--------|------5-------------------------|
------------6------8-6b---|----3---------------------------|


                                    
----------8-10-10b10b-10b10b10r--8-|
--11b------------------------------|
-----------------------------------|
-----------------------------------|
-----------------------------------|
-----------------------------------|


                                                       
--10~---13-10-----------------------------------------|
--------------13-10-----------------------------------|
--------------------12-10-----------------------------|
--------------------------12-10-----------------------|
--------------------------------12-10----8-10-8-7-8-7-|
------------------------------------------------------|


                                
-------------------------12-17-|
----------------------13-------|
-------------------14----------|
----------------12-------------|
-------------------------------|
-------------------------------|


                                                    
--12-15---12-------------------12----17------------|
----------------------------12----12----15/-13-----|
-------------------------12------------------------|
----------------------12---------------------------|
-------------------14------------------------------|
----------------15---------------------------------|


                                                                                
--15--15-------------12-17--17----------------17-12-15-12-----------------------
---------13-------13-----------15----------15-------------13--------------------
------------12-14-----------------14----14-------------------14-----------------
-------------------------------------12-------------------------12-10-------10-9


                                                                      
-------------------------------------------------|-------------------|
-------------------------------------------------|-------------------|
-------------------------------------------------|-------------------|
--9-7------7-5---5-3-----3-2-3-2-3-2-0-----------|-------------------|
---------8-----------------------------3-5-3-2-3-|--3----------------|
------10-------8-----7-7-------------------------|-------------------|


                                       
------------------|------------------||
------------------|------------------||
------------------|------------------||
------------------|------------------||
------------------|------------------||
------------------|------------------||





Thanks.





Comments


Popular Vai Steve tabs & chords
For The Love Of God Bass Tabs
Sex And Religion Chords
Answers Tabs
Audience Is Listining Tabs
Blood And Glory Tabs
Brother 1 Tabs
Butlers Bag Tabs
Fever Dream Tabs
Liberty 1 Tabs
Tender Surrender Tabs


Song lyrics



↑ Back to top | Tablatures and chords are parodies/interpretations of the original songs. You may use it for private study, scholarship, research or language learning purposes only
© 2014 AZChords.com Contact us | Privacy policy | DMCA | Add/correct tabs | Request tabs | Top 50 tabs