» » »

Vai Steve, Sailing Ships Tabs (ver.1)

Artists:  A B C D E F G H I J K L M N O P Q R S T U V W X Y Z # 

Sailing Ships Tabs (ver.1)

Vai Steve Tabs
 Rating:
4/5 (4 votes)
Sailing Ships lessons Tabs too difficult? Try these video lessons and learn fast
                
For this song,I play every verse and bridge with fingers but it must be enough
difficult for you,especially for the brigde!!!!!
I play the chorus with pick!
So good work!!!!!

Intro/verse

  Am                G                 C   G   Am7 G     Fsus2
|-------------0---|---------3-------|-----------------|-----------------|
|-1-------3-------|-3-----------6---|-5---3---1---0---|-1--------3/5----|
|-----2-----------|-----0-----------|---0---0---0---0-|-------0---------|
|-------2---------|-------0---------|-----------------|-----3-----------|
|-0---------------|-2---------------|-3---2---0-------|-----------------|
|-----------------|-----------------|-------------3---|-1---------------|

  G                 F     E           Am        Dadd4 
|-----------------|-----------------|-----------------|-5---------------|
|-3------3--------|-1-------0-------|---------------3-|---3-------------|
|------4---4------|---2-------1-----|-2-----------0---|-----0-----------|
|----5-------5\---|-----3-------2---|---------2/4-----|-------4---------|
|-----------------|-----------------|-0---------------|-----------------|
|-3---------------|-1-------0-------|-----------------|-----------------|



  Am                G                 C   G   Am7 G     Fsus2
|-------------0---|---------3-------|-----------------|-----------------|
|-1-------3-------|-3-----------6---|-5---3---1---0---|-1--------3/5----|
|-----2-----------|-----0-----------|---0---0---0---0-|-------0---------|
|-------2---------|-------0---------|-----------------|-----3-----------|
|-0---------------|-2---------------|-3---2---0-------|-----------------|
|-----------------|-----------------|-------------3---|-1---------------|

  G                 F     E           Am        Dadd4   Am7
|-----------------|-----------------|-----------------|-----------------|
|-3------3--------|-1-------0-------|---------------3-|-----1-----------|
|------4---4------|---2-------1-----|-2-----------0---|-----------------|
|----5-------5\---|-----3-------2---|---------2/4-----|-4\2-------------|
|-----------------|-----------------|-0---------------|-----------------|
|-3---------------|-1-------0-------|-----------------|-----------------|
                             


Bridge 
                   
  Dm        Dsus2   DmAdd6            C/D               F
|-1-------1-0-----|-1-------1-0-----|-1/3-----3---5---|-5---------5-----|
|-------3-----3---|-------3-----3---|-------5---5-----|---------6---6---|
|-----2---------2-|-----3---------3-|-----5-----------|-------5---------|
|-0---------------|-0---------------|-0---------------|-3---3-----------|
|-----------------|-----------------|-----------------|-----------------|
|-----------------|-----------------|-----------------|-----------------|

  Bb                Csus4   C         G
|-1-------1-0-1---|-1-------0-------|-----------------|-----------------|
|-------3---------|----1------1-----|-3---------------|-----------------|
|-----3-----------|------0------0---|-----------------|-----------------|
|-0---------------|-----------------|-----------------|-----------------|
|-----------------|-3---------------|-----------------|-----------------|
|-----------------|-----------------|-3---------------|-----------------|


Chorus
                            
                    EmAdd9            G       Aadd2add4 EmAdd9            G       Aadd2add4
|-----------------|-----------------|-----------------|-----------------|-----------------|
|-----------------|-----------------|---------------0-|-----------------|---------------0-|
|-----------------|---------0-------|-----------------|---------0-------|-----------------|  
|-----------------|-------4---4-2---|-----0-------0---|-------4---4-2---|-----0-------0---|
|-----------------|-----2-----------|---2-------4-----|-----2-----------|---2-------4-----|
|---------3-2-----|-0-------------0-|-3-----3/5-------|-0-------------0-|-3-----3/5-------|

  EmAdd9            G       Aadd2add4 EmAdd9            G       Aadd2add4
|-----------------|-----------------|-----------------|-----------------|
|-----------------|---------------0-|-----------------|---------------0-|
|---------0-------|-----------------|---------0-------|-----------------|  
|-------4---4-2---|-----0-------0---|-------4---4-2---|-----0-------0---|
|-----2-----------|---2-------4-----|-----2-----------|---2-------4-----|
|-0-------------0-|-3-----3/5-------|-0-------------0-|-3-----3/5-------|

  Am7sus2           C       Dadd4add6 Am7sus2           C       Dadd4add6
|-----------------|-----------------|-----------------|-----------------|
|---------0-------|---------------0-|---------0-------|---------------0-|
|-------0---0-----|-----0-------0---|-------0---0-----|-----0-------0---|
|-----2-------2---|---2-------4-----|-----2-------2---|---2-------4-----|
|-0-------------0-|-3-----3/5-------|-0-------------0-|-3-----3/5-------|
|-----------------|-----------------|-----------------|-----------------|



  C                        D                          Asus2
|-----------<5>----------|-------------<7>----------|-0---------------|
|---------------<5>------|-----------------<7>------|-0---------------|
|--------<5>--------<5>--|---------<7>---------<7>--|-2---------------|
|----<5>-----------------|-----<7>------------------|-2---------------|
|-3----------------------|-3/5----------------------|-0---------------|
|------------------------|--------------------------|-----------------|


Chorus 2
                            
                    EmAdd9            G       Aadd2add4     EmAdd9            G       Aadd2add4
|-----------------|-----------------|---------------------|-----------------|---------------------|
|-----------------|-----------------|-----------------<7>-|-----------------|-----------------<7>-|
|-----------------|---------0-------|-------------<7>-<7>-|---------0-------|-------------<7>-<7>-|  
|-----------------|-------4---4-2---|-----0---------------|-------4---4-2---|-----0---------------|
|-----------------|-----2-----------|---2-------4---------|-----2-----------|---2-------4---------|
|---------3-2-----|-0-------------0-|-3-----3/5-----------|-0-------------0-|-3-----3/5-----------|


  EmAdd9            G       Aadd2add4     EmAdd9            G       Aadd2add4
|-----------------|---------------------|-----------------|---------------------|
|-----------------|-----------------<7>-|-----------------|-----------------<7>-|
|---------0-------|-------------<7>-<7>-|---------0-------|-------------<7>-<7>-|  
|-------4---4-2---|-----0---------------|-------4---4-2---|-----0---------------|
|-----2-----------|---2-------4---------|-----2-----------|---2-------4---------|
|-0-------------0-|-3-----3/5-----------|-0-------------0-|-3-----3/5-----------|


  Am7sus2           C       Dadd4add6     Am7sus2           C       Dadd4add6
|-----------------|-----------------<7>-|-----------------|-----------------<7>-|
|---------0-------|-----------------<7>-|---------0-------|-----------------<7>-|
|-------0---0-----|-----0-------<7>-----|-------0---0-----|-----0-------<7>-----|
|-----2-------2---|---2-------4---------|-----2-------2---|---2-------4---------|
|-0-------------0-|-3-----3/5-----------|-0-------------0-|-3-----3/5-----------|
|-----------------|---------------------|-----------------|---------------------|




If you have any suggestions or corrections to do,e-mail me!!!!!




' - bend              example:-15'-----`(15)
` - release                   bend     release to original note
^ - bend and release                 
(2) - ghost note         <12> - Artificial Harmonic
X - percussive sound     P - Pull-off
/ - slide up             h - Hammer-on
\ - slide down           trem. - tremolo (whammy) bar
~ - vibrato
.. - note held           Note: Please read EVERYTHING above the staff
PM - palm muted                as well as in it!!
            
Submit corrections

comments powered by Disqus
↑ Back to top | Vai Steve Tabs for Sailing Ships. Lyrics for acoustic guitar and electric guitar. Tablatures and chords are parodies/interpretations of the original songs. You may use it for private study, scholarship, research or language learning purposes only