>
 >
Oooo

Oooo Guitar Tabs

Vai Steve - Oooo chords, tabs, tablatures, lyrics

Guitar lessons | Add/correct | Request | Top 50 tabs Artists:  A B C D E F G H I J K L M N O P Q R S T U V W X Y Z 0-9

Oooo Guitar Tabs – Vai Steve

CD, Sheet music, Poster

Do you like Oooo? Share with your friends now
Tabs
Steve Vai-Oooo
Ultra Zone

Drop D Tuning whole step down

I tabbed in Drop D but if you want
you can just play it in Drop D without 
dropping a whole step unless you are
jamming to a cd.
I was only able to tab the first 1/4 of this song.

The ending chords which are 777, 
are played by a different guitar.

Key

()	=	palm mute
/	=	slide up
\	=	slide down
vv	=	strum down twice
^	=	strum up slowly
~	=	let note(s) ring

E-----------------------------------------------------
B-----------------------------------------------------
G------------------------------/9-----------------/9--
D-(3)--(2)--(1)--0---0-(00)-0------00---0-(00)-0------
A-(3)--(2)--(1)--0---0-(00)-0------00---0-(00)-0------
D-(3)--(2)--(1)--0---0-(00)-0------00---0-(00)-0------

E----------------------------------------
B----------------------------------------
G---------------/12-----------------/12--
D-3---3-(33)-3-------33---3-(33)-3-------
A-3---3-(33)-3-------33---3-(33)-3-------
D-3---3-(33)-3-------33---3-(33)-3-------

E----------------------------------------
B----------------------------------------
G---------------/11-----------------/11--
D-4---4-(44)-4-------44---4-(44)-4-------
A-4---4-(44)-4-------44---4-(44)-4-------
D-4---4-(44)-4-------44---4-(44)-4-------

E-------------------------------------
B-------------------------------------
G---------------/12-------------------
D-3---3-(33)-3-------33---3-(33)-3----
A-3---3-(33)-3-------33---3-(33)-3----
D-3---3-(33)-3-------33---3-(33)-3----

E------------------------------/12----------------/12-
B-----------------------------------------------------
G------------------------------/9-----------------/9--
D-(3)--(2)--(1)--0---0-(00)-0------00---0-(00)-0------
A-(3)--(2)--(1)--0---0-(00)-0------00---0-(00)-0------
D-(3)--(2)--(1)--0---0-(00)-0------00---0-(00)-0------

E---------------15-----------------15--
B--------------------------------------
G---------------12-----------------12--
D-3---3-(33)-3------33---3-(33)-3------
A-3---3-(33)-3------33---3-(33)-3------
D-3---3-(33)-3------33---3-(33)-3------

E---------------14-----------------14--
B--------------------------------------
G---------------11-----------------11--
D-4---4-(44)-4------44---4-(44)-4------
A-4---4-(44)-4------44---4-(44)-4------
D-4---4-(44)-4------44---4-(44)-4------

E---------------15-------------------
B------------------------------------
G---------------12-------------------
D-3---3-(33)-3------33---3-(33)-3----
A-3---3-(33)-3------33---3-(33)-3----
D-3---3-(33)-3------33---3-(33)-3----

E------------------------------12----------------
B------------------------------------------------
G------------------------------9-----------------
D-(3)--(2)--(1)--0---0-(00)-0-----00---0-(00)-0--
A-(3)--(2)--(1)--0---0-(00)-0-----00---0-(00)-0--
D-(3)--(2)--(1)--0---0-(00)-0-----00---0-(00)-0--

E----------------------------------------------
B------------------10/13\10-------10/12\10-----
G----------------------------------------------
D-(3)--(2)--(1)--1----------12--2----------12--
A-(3)--(2)--(1)--1--------------2--------------
D-(3)--(2)--(1)--1--------------2--------------

E--------------------------------------------
B---10/15\12-------12/16/19-----16-17-16\12--
G--------------------------------------------
D-3----------12--2----------2-3--------------
A-3--------------2----------2-3--------------
D-3--------------2----------2-3--------------

E----------------------------------------------
B---16-17-16-14------19-16-14\12---------14-17-
G-------------------------------------14-------
D-4--------------4-5--------------5-7----------
A-4--------------4-5--------------5-7----------
D-4--------------4-5--------------5-7----------
      wah
E-----/12-----21-17---------------------------
B------------------19-17----------------------
G-----------------------18-16-----------------
D-7--------7--7--------------18-16------------
A-7--------7--7-------------------18-16-------
D-7--------7--7------------------------18-16--
  ^     wah       vv 
E-0-----/24-------------------------
B-12--------------14---------16~17~-
G-13--------------13------18~~~~~~~-
D-13-7-------7-7--12-7-7------------
A----7-------7-7-----7-7------------
D----7-------7-7-----7-7------------





Comments


Popular Vai Steve tabs & chords
Blood And Glory Tabs
Blue Powder Tabs
Brother 1 Tabs
Butlers Bag Tabs
Crossroads Paganini Tabs
Mysterious Murder Of Christian Terias Lover Tabs
Rescue Me Or Bury Me Tabs
The Attitude Song Tabs
The Audience Is Tabs
Whispering A Prayer Tabs


Song lyrics



↑ Back to top | Tablatures and chords are parodies/interpretations of the original songs. You may use it for private study, scholarship, research or language learning purposes only
© 2014 AZChords.com Contact us | Privacy policy | DMCA | Add/correct tabs | Request tabs | Top 50 tabs