>
 >
Melissa S Garden

Melissa S Garden Guitar Tabs

Vai Steve - Melissa S Garden chords, tabs, tablatures, lyrics

Guitar lessons | Add/correct | Request | Top 50 tabs Artists:  A B C D E F G H I J K L M N O P Q R S T U V W X Y Z 0-9

Melissa S Garden Guitar Tabs – Vai Steve

CD, Sheet music, Poster

Do you like Melissa S Garden? Share with your friends now
Tabs


Intro
        let ring......                                   let ring....    
                                                    s
E--------|-----------------0-----------0-----------|--------10--11-----------|-
B--------|--------0-----4-----4-----------4-----0--|--------11--12-----------|-
G--------|-----------6-----------6--------------2--|--x/----11--12-----------|-
D--6-----|--5--6--------------------6--------6--2--|--x/----10--11----6------|-
A--------|--7-----------------------------------0--|-------------------------|-
E--------|--0--------------------------------------|-------------------------|-

    let ring......                   let ring......
                    
E------------------0-----------0-------|-2-------0-------------------0-------|-
B---------0-----4-----4-----------4----|-0--0h2-----2-----------0h2-----2----|-
G------------6-----------6-------------|-4-------------------4-------------4-|-
D---5--6--------------------6--------6-|-4----------------4------------------|-
A---7----------------------------------|-------------------------------------|-
E---0----------------------------------|-4-------------3---------------------|-


   let ring.....               
                      
E---------------0------------------------|-----------------------------------|-
B------------------0--0------------------|-----------------------------------|-
G-----------1---------1------------------|-----------------------------------|-
D--------2------------2------------------|-----------------------------6-----|-
A-----4---------------0------------------|-----------------------------------|-
E--2-------------------------------------|-----------------------------------|-

   let ring......                      let ring......
                                              s
E-----------------0-----------0-----------|--------13--10--7--10------|-
B--------0-----4-----4-----------4-----0--|--------14--11--8--11------|-
G-----------6-----------6--------------2--|--x/----14--11--8--11------|-
D--5--6--------------------6--------6--2--|--x/----12--10--6--10----6-|-
A--7-----------------------------------0--|---------------------------|-
E--0--------------------------------------|---------------------------|-

   let ring......                      let ring...................

E-----------------0-----------0-------|------0-------------0-------|-
B--------0-----4-----4-----------4----|-0-------0--0----------0----|-
G-----------6-----------6-------------|-4----------4----4--------4-|-
D--5--6--------------------6--------6-|-2----------4---------------|-
A--7----------------------------------|-3----------2---------------|-
E--0----------------------------------|----------------------------|-


                     let ring......                rake   let ring......
                                                   .....
E------------------------------------------------|--------0----------------|-
B--------------0-----0---------------------------|-4------0----------------|-
G-----------0-----2--4---------------------------|---4----1----------------|-
D--------3-----------4---------------------------|-----4--4----------------|-
A-----3--------------2---------------------------|--------2----------------|-
E--1---------------------------------------------|--------0----------------|-



   s                      s                 s                       s    
E--/11-----------------------------------------------------------------|-
B------12--------------------------------------------------------------|-
G---------11------------------------11-13-13/15-11-----13^(13)-13--x/--|-
D-----------------------------11-13----------------13------------------|-
A-------------11^(11)-9-11/13------------------------------------------|-
E----------------------------------------------------------------------|-

                 s             s                   s               
E---------4------/9-----------------|-----------5-7/9-------9^(9)-9-9----|-
B-------0-----------10--------------|---------5-------10-----------------|-
G-----6----------------9------------|-------6------------9---------------|-
D---7-------------------------------|-4-6-7------------------------------|-
A-5-----------------------5h7p5\4h5-|------------------------------------|-
E-----------------------------------|------------------------------------|-

                s                 s                  
E---------1--------8-----------------|--------------13-------------|-
B-------3------------8---------------|-----------11----13----------|-
G-----3---------/8-------------------|-----12-10-------------11-10-|-
D---1--------------------------------|--10-------------------------|-
A-3---------------------12^(12)p10\8-|-----------------------------|-
E------------------------------------|-----------------------------|-

                
E-----------1--1-----1------|-1------------------------------|-
B---------1------3-----3----|-1------------------------------|-
G-------3----------3-----3--|-3------------------------------|-
D-----3---------------------|-3------------------------------|-
A---3-----------------------|-3------------------------------|-
E-1-------------------------|-1------------------------------|-

    s                           s
E-----------------------------------------------------------------------------|-
B-----------------------------------------------------------------------------|-
G------------------------------------------------------------------5-7-8p7----|-
D--------------------------------------5h7p5---5-7-8-7h8p7p5-5-7-8---------10-|-
A----------3h5p3---3-5-6-5h6p5p3/5h6h8-------8--------------------------------|-
E--1/3h5h6-------6------------------------------------------------------------|-


                                              s
E---------------------------8-10----8-10-11-11/13-----
B---------8h10p8----8-10-11------11-------------------
G--7-8-10--------10-----------------------------------
D------------------------------------------------------
A------------------------------------------------------
E----------------------------------------------------

I can't trancribe the rest......

chords(after)


   let ring...    let ring...    let ring...   let ring...   let ring...

E--14-17----------14-11----------8-11----------8-11----------2-5----------4-----
B--15-------------12-------------9-------------6-------------3------------5-5---
G--14-------------11-------------8-------------5-------------2------------4-----
D--14-------------11-------------8-------------5-------------2------------4-----
A--14-------------11-------------8-------------5-------------2------------4-----
E-------------------------------------------------------------------------------


   let ring...         let ring...

E--7--6--------------|-7----7----------------------------------------------
B--7-----7-----------|-9------9--------------------------------------------
G--6-----------------|-9--------9---9--------------------------------------
D--6-----------------|-9----------9----------------------------------------
A--6-----------------|-7---------------------------------------------------
E--------------------|-----------------------------------------------------



If you have any suggestions or corrections to do,e-mail me!!!!





' - bend              example:-15'-----`(15)
` - release                   bend     release to original note
^ - bend and release                 
(2) - ghost note         AH - Artificial Harmonic
X - percussive sound     P - Pull-off
/ - slide up             H - Hammer-on
\ - slide down           trem. - tremolo (whammy) bar
~ - vibrato
.. - note held           Note: Please read EVERYTHING above the staff
PM - palm muted                as well as in it!!





Comments


Popular Vai Steve tabs & chords
Butlers Bag Tabs
Crossroad Tabs
Crossroads Paganini Tabs
Damn Good Tabs
Erotic Nightmares 1 Tabs
Fire Garden Suit Tabs
Hand On Heart 1 Tabs
Jibboom Tabs
The Audience Is 1 Tabs
The Duel Tabs


Song lyrics



↑ Back to top | Tablatures and chords are parodies/interpretations of the original songs. You may use it for private study, scholarship, research or language learning purposes only
© 2014 AZChords.com Contact us | Privacy policy | DMCA | Add/correct tabs | Request tabs | Top 50 tabs