>
 >
Fire Garden Suit

Fire Garden Suit Guitar Tabs

Vai Steve - Fire Garden Suit chords, tabs, tablatures, lyrics

Guitar lessons | Add/correct | Request | Top 50 tabs Artists:  A B C D E F G H I J K L M N O P Q R S T U V W X Y Z 0-9

Fire Garden Suit Guitar Tabs – Vai Steve

CD, Sheet music, Poster

Do you like Fire Garden Suit? Share with your friends now
Tabs
All the guitar and sitar parts are as detailed and precise as it can get.
I will post what each guitar does one after another so you might have some compilating and scrolling down to do! You have to read the tabs and the different guitars as a compilation. Each bar plays at the same time. Not “AFTER” the example; guitar 1.

So you give each guitar part to each guitarist and play at the same time depending on what you see… just to clear things up. Same applies with all my other Tabs.

Enjoy.




                            Fire Garden Suite                                 


                                                                       Steve Vai
Guitar 1
                                                            
E||------------------|-------------------|-------------------|
B||------------------|-------------------|-------------------|
G||------------------|-------------------|-------------------|
D||------------------|-------------------|-------------------|
A||------------------|-------------------|--------------4----|
E||--3--5----5~---5--|--6--5--0--5----5--|--6--5--5--6-------|


                                                                 
-------------------|-----------------------|--------------------|
-------------------|-----------------------|--------------------|
-------------------|-----------------------|--------------------|
-------------------|--5h7h5h0-3h5h3h0------|--------------10----|
--5--4--4--5--7~---|------------------5/---|--8--------8--------|
-------------------|-----------------------|-----6--6-----------|


                                                             
-------------------|--------------------|-------------------|
-------------------|--------------------|-------------------|
-------------------|--------------------|-------------------|
--10/-7--5--7~-----|--7h5---------------|-----------7----3/-|
-------------------|------7-5-----------|--------5----------|
-------------------|----------6--5~-----|--3--3-------------|


                                                                         
-------------------|---------------------------------|------------------|
-------------------|---------------------------------|------------------|
-----4--5-----4~---|--10h12h10h0--8h10h8h0--7h8h7h0--|--5--4------------|
--5--------7-------|---------------------------------|--------3--5------|
-------------------|---------------------------------|------------------|
-------------------|---------------------------------|------------------|


                                                                               
-----------------|-------------------|------------------|---------------------|
-----------------|-------------------|------------------|---------------------|
-----------------|-------------------|-------------6----|--------------6------|
--7--------------|----7-7-7-8-7~-----|-------7--8-------|--8-7-7-7-7-8--------|
-----------------|-------------------|------------------|---------------------|
-----5----5------|-------------------|--5---------------|---------------------|


                                                                   
--------------------|-------------------|-------------------------|
--------------------|-------------------|-------------------------|
--7--6--7--9----10--|--------------9----|--9-8-8-9/12-------------|
--------------------|--8--7-------------|-------------------------|
--------------------|--------8--7-------|----------------------0--|
--------------------|-------------------|-------------------------|


                                                         
---------------------------|----------------------------|
---------------------------|----------------------------|
------9-8-8-9-12--12-------|------9-8-8-8-9-8-8-9-12----|
---------------------------|----------------------------|
------------------------0--|----------------------------|
---------------------------|----------------------------|


                                                         
-------------------------------|------------------------|
--13-------------10------------|------------------------|
------12/-10--9------10/-7--7--|--7--6--6--7--9---------|
-------------------------------|------------------------|
-------------------------------|---------------------0--|
-------------------------------|------------------------|


                                                               
------------------------------|-------------------------------|
------------------------------|-------------------------------|
--12/7-7-7-12/7-7-7-6---------|----12/7-7-7-7-7-12/7-7-7-6----|
------------------------------|-------------------------------|
---------------------------0--|-------------------------------|
------------------------------|-------------------------------|


                                                                   
----------------------|------------------------|------------------|
----------------------|------------------------|------------------|
----------------------|------------------------|------------------|
----------------------|------------------------|------------------|
----------------------|----0-------3-----------|------------------|
----0----1----2----3--|---------0-----5--4--3--|------------------|


                                                                            
------------------|------------------|------------------|------------------|
------------------|------------------|------------------|------------------|
------------------|------------------|------------------|------------------|
------------------|------------------|------------------|------------------|
------------------|------------------|------------------|------------------|
------------------|------------------|------------------|------------------|


                                                                            
------------------|------------------|------------------|------------------|
------------------|------------------|------------------|------------------|
------------------|------------------|------------------|------------------|
------------------|------------------|------------------|------------------|
------------------|------------------|------------------|------------------|
------------------|------------------|------------------|------------------|


                                                                            
------------------|------------------|------------------|------------------|
------------------|------------------|------------------|------------------|
------------------|------------------|------------------|------------------|
------------------|------------------|------------------|------------------|
------------------|------------------|------------------|------------------|
------------------|------------------|------------------|------------------|


                                                                            
------------------|------------------|------------------|------------------|
------------------|------------------|------------------|------------------|
------------------|------------------|------------------|------------------|
------------------|------------------|------------------|------------------|
------------------|------------------|------------------|------------------|
------------------|------------------|------------------|------------------|


                                                                            
------------------|------------------|------------------|------------------|
------------------|------------------|------------------|------------------|
------------------|------------------|------------------|------------------|
------------------|------------------|------------------|------------------|
------------------|------------------|------------------|------------------|
------------------|------------------|------------------|------------------|


                                                                            
------------------|------------------|------------------|------------------|
------------------|------------------|------------------|------------------|
------------------|------------------|------------------|------------------|
------------------|------------------|------------------|------------------|
------------------|------------------|------------------|------------------|
------------------|------------------|------------------|------------------|


                                                                            
------------------|------------------|------------------|------------------|
------------------|------------------|------------------|------------------|
------------------|------------------|------------------|------------------|
------------------|------------------|------------------|------------------|
------------------|------------------|------------------|------------------|
------------------|------------------|------------------|------------------|


                                                                            
------------------|------------------|------------------|------------------|
------------------|------------------|------------------|------------------|
------------------|------------------|------------------|------------------|
------------------|------------------|------------------|------------------|
------------------|------------------|------------------|------------------|
------------------|------------------|------------------|------------------|


                                                                            
------------------|------------------|------------------|------------------|
------------------|------------------|------------------|------------------|
------------------|------------------|------------------|------------------|
------------------|------------------|------------------|------------------|
------------------|------------------|------------------|------------------|
------------------|------------------|------------------|------------------|


                                                                            
------------------|------------------|------------------|------------------|
------------------|------------------|------------------|------------------|
------------------|------------------|------------------|------------------|
------------------|------------------|------------------|------------------|
------------------|------------------|------------------|------------------|
------------------|------------------|------------------|------------------|


                                                                            
------------------|------------------|------------------|------------------|
------------------|------------------|------------------|------------------|
------------------|------------------|------------------|------------------|
------------------|------------------|------------------|------------------|
------------------|------------------|------------------|------------------|
------------------|------------------|------------------|------------------|


                                                                            
------------------|------------------|------------------|------------------|
------------------|------------------|------------------|------------------|
------------------|------------------|------------------|------------------|
------------------|------------------|------------------|------------------|
------------------|------------------|------------------|------------------|
------------------|------------------|------------------|------------------|


                                                                            
------------------|------------------|------------------|------------------|
------------------|------------------|------------------|------------------|
------------------|------------------|------------------|------------------|
------------------|------------------|------------------|------------------|
------------------|------------------|------------------|------------------|
------------------|------------------|------------------|------------------|


                                                                            
------------------|------------------|------------------|------------------|
------------------|------------------|------------------|------------------|
------------------|------------------|------------------|------------------|
------------------|------------------|------------------|------------------|
------------------|------------------|------------------|------------------|
------------------|------------------|------------------|------------------|


                                                                            
------------------|------------------|------------------|------------------|
------------------|------------------|------------------|------------------|
------------------|------------------|------------------|------------------|
------------------|------------------|------------------|------------------|
------------------|------------------|------------------|------------------|
------------------|------------------|------------------|------------------|


                                                                            
------------------|------------------|------------------|------------------|
------------------|------------------|------------------|------------------|
------------------|------------------|------------------|------------------|
------------------|------------------|------------------|------------------|
------------------|------------------|------------------|------------------|
------------------|------------------|------------------|------------------|


                                                                            
------------------|------------------|------------------|------------------|
------------------|------------------|------------------|------------------|
------------------|------------------|------------------|------------------|
------------------|------------------|------------------|------------------|
------------------|------------------|------------------|------------------|
------------------|------------------|------------------|------------------|


                                                                            
------------------|------------------|------------------|------------------|
------------------|------------------|------------------|------------------|
------------------|------------------|------------------|------------------|
------------------|------------------|------------------|------------------|
------------------|------------------|------------------|------------------|
------------------|------------------|------------------|------------------|


                                                                            
------------------|------------------|------------------|------------------|
------------------|------------------|------------------|------------------|
------------------|------------------|------------------|------------------|
------------------|------------------|------------------|------------------|
------------------|------------------|------------------|------------------|
------------------|------------------|------------------|------------------|


                                                                            
------------------|------------------|------------------|------------------|
------------------|------------------|------------------|------------------|
------------------|------------------|------------------|------------------|
------------------|------------------|------------------|------------------|
------------------|------------------|------------------|------------------|
------------------|------------------|------------------|------------------|


                                                                            
------------------|------------------|------------------|------------------|
------------------|------------------|------------------|------------------|
------------------|------------------|------------------|------------------|
------------------|------------------|------------------|------------------|
------------------|------------------|------------------|------------------|
------------------|------------------|------------------|------------------|


                                                                        
------------------|------------------|------------------|--------------|
------------------|------------------|------------------|--------------|
------------------|------------------|------------------|--------------|
------------------|------------------|------------------|--------------|
------------------|------------------|------------------|--------------|
------------------|------------------|------------------|--------------|


                                                                           
--------------|--------------|--------------|--------------|--------------|
--------------|--------------|--------------|--------------|--------------|
--------------|--------------|--------------|--------------|--------------|
--------------|--------------|--------------|--------------|--------------|
--------------|--------------|--------------|--------------|--------------|
--------------|--------------|--------------|--------------|--------------|


                                                                            
------------------|------------------|------------------|------------------|
------------------|------------------|------------------|------------------|
------------------|------------------|------------------|------------------|
------------------|------------------|------------------|------------------|
------------------|------------------|------------------|------------------|
------------------|------------------|------------------|------------------|


                                                                            
------------------|------------------|------------------|------------------|
------------------|------------------|------------------|------------------|
------------------|------------------|------------------|------------------|
------------------|------------------|------------------|------------------|
------------------|------------------|------------------|------------------|
------------------|------------------|------------------|------------------|


                                                                            
------------------|------------------|------------------|------------------|
------------------|------------------|------------------|------------------|
------------------|------------------|------------------|------------------|
------------------|------------------|------------------|------------------|
------------------|------------------|------------------|------------------|
------------------|------------------|------------------|------------------|


                                                                            
------------------|------------------|------------------|------------------|
------------------|------------------|------------------|------------------|
------------------|------------------|------------------|------------------|
------------------|------------------|------------------|------------------|
------------------|------------------|------------------|------------------|
------------------|------------------|------------------|------------------|


                                                                            
------------------|------------------|------------------|------------------|
------------------|------------------|------------------|------------------|
------------------|------------------|------------------|------------------|
------------------|------------------|------------------|------------------|
------------------|------------------|------------------|------------------|
------------------|------------------|------------------|------------------|


                                                                            
------------------|------------------|------------------|------------------|
------------------|------------------|------------------|------------------|
------------------|------------------|------------------|------------------|
------------------|------------------|------------------|------------------|
------------------|------------------|------------------|------------------|
------------------|------------------|------------------|------------------|


                                                                            
------------------|------------------|------------------|------------------|
------------------|------------------|------------------|------------------|
------------------|------------------|------------------|------------------|
------------------|------------------|------------------|------------------|
------------------|------------------|------------------|------------------|
------------------|------------------|------------------|------------------|


                                                                            
------------------|------------------|------------------|------------------|
------------------|------------------|------------------|------------------|
------------------|------------------|------------------|------------------|
------------------|------------------|------------------|------------------|
------------------|------------------|------------------|------------------|
------------------|------------------|------------------|------------------|


                                                                            
------------------|------------------|------------------|------------------|
------------------|------------------|------------------|------------------|
------------------|------------------|------------------|------------------|
------------------|------------------|------------------|------------------|
------------------|------------------|------------------|------------------|
------------------|------------------|------------------|------------------|


                                                                            
------------------|------------------|------------------|------------------|
------------------|------------------|------------------|------------------|
------------------|------------------|------------------|------------------|
------------------|------------------|------------------|------------------|
------------------|------------------|------------------|------------------|
------------------|------------------|------------------|------------------|


                                                                            
------------------|------------------|------------------|------------------|
------------------|------------------|------------------|------------------|
------------------|------------------|------------------|------------------|
------------------|------------------|------------------|------------------|
------------------|------------------|------------------|------------------|
------------------|------------------|------------------|------------------|


                                                                            
------------------|------------------|------------------|------------------|
------------------|------------------|------------------|------------------|
------------------|------------------|------------------|------------------|
------------------|------------------|------------------|------------------|
------------------|------------------|------------------|------------------|
------------------|------------------|------------------|------------------|


                                                                            
------------------|------------------|------------------|------------------|
------------------|------------------|------------------|------------------|
------------------|------------------|------------------|------------------|
------------------|------------------|------------------|------------------|
------------------|------------------|------------------|------------------|
------------------|------------------|------------------|------------------|


                                                             
------------------|------------------|----------------------|
------------------|------------------|----------------------|
------------------|------------------|----------------------|
------------------|------------------|----------------------|
------------------|------------------|----------------------|
------------------|------------------|----------------------|


                                                                         
-------------------|------------------|--------------|------------------|
-------------------|------------------|--------------|------------------|
-------------------|------------------|--------------|------------------|
-------------------|------------------|--------------|------------------|
-------------------|------------------|--------------|------------------|
-------------------|------------------|--------------|------------------|


                                                                            
------------------|------------------|------------------|------------------|
------------------|------------------|------------------|------------------|
------------------|------------------|------------------|------------------|
------------------|------------------|------------------|------------------|
------------------|------------------|------------------|------------------|
------------------|------------------|------------------|------------------|


                                                                               
------------------|--------------|--------------|--------------|--------------|
------------------|--------------|--------------|--------------|--------------|
------------------|--------------|--------------|--------------|--------------|
------------------|--------------|--------------|--------------|--------------|
------------------|--------------|--------------|--------------|--------------|
------------------|--------------|--------------|--------------|--------------|


                                                                           
--------------|--------------|--------------|--------------|--------------|
--------------|--------------|--------------|--------------|--------------|
--------------|--------------|--------------|--------------|--------------|
--------------|--------------|--------------|--------------|--------------|
--------------|--------------|--------------|--------------|--------------|
--------------|--------------|--------------|--------------|--------------|


                                                                    
----------|------------------|------------------|------------------|
----------|------------------|------------------|------------------|
----------|------------------|------------------|------------------|
----------|------------------|------------------|------------------|
----------|------------------|------------------|------------------|
----------|------------------|------------------|------------------|


                                                                            
------------------|------------------|------------------|------------------|
------------------|------------------|------------------|------------------|
------------------|------------------|------------------|------------------|
------------------|------------------|------------------|------------------|
------------------|------------------|------------------|------------------|
------------------|------------------|------------------|------------------|


                                                                            
------------------|------------------|------------------|------------------|
------------------|------------------|------------------|------------------|
------------------|------------------|------------------|------------------|
------------------|------------------|------------------|------------------|
------------------|------------------|------------------|------------------|
------------------|------------------|------------------|------------------|


                                                                            
------------------|------------------|------------------|------------------|
------------------|------------------|------------------|------------------|
------------------|------------------|------------------|------------------|
------------------|------------------|------------------|------------------|
------------------|------------------|------------------|------------------|
------------------|------------------|------------------|------------------|


                                                                            
------------------|------------------|------------------|------------------|
------------------|------------------|------------------|------------------|
------------------|------------------|------------------|------------------|
------------------|------------------|------------------|------------------|
------------------|------------------|------------------|------------------|
------------------|------------------|------------------|------------------|


                                                                            
------------------|------------------|------------------|------------------|
------------------|------------------|------------------|------------------|
------------------|------------------|------------------|------------------|
------------------|------------------|------------------|------------------|
------------------|------------------|------------------|------------------|
------------------|------------------|------------------|------------------|


                                                                            
------------------|------------------|------------------|------------------|
------------------|------------------|------------------|------------------|
------------------|------------------|------------------|------------------|
------------------|------------------|------------------|------------------|
------------------|------------------|------------------|------------------|
------------------|------------------|------------------|------------------|


                                                                            
------------------|------------------|------------------|------------------|
------------------|------------------|------------------|------------------|
------------------|------------------|------------------|------------------|
------------------|------------------|------------------|------------------|
------------------|------------------|------------------|------------------|
------------------|------------------|------------------|------------------|


                                                                            
------------------|------------------|------------------|------------------|
------------------|------------------|------------------|------------------|
------------------|------------------|------------------|------------------|
------------------|------------------|------------------|------------------|
------------------|------------------|------------------|------------------|
------------------|------------------|------------------|------------------|


                                                                            
------------------|------------------|------------------|------------------|
------------------|------------------|------------------|------------------|
------------------|------------------|------------------|------------------|
------------------|------------------|------------------|------------------|
------------------|------------------|------------------|------------------|
------------------|------------------|------------------|------------------|


                                                                           
------------------|-------------------------|-----------------------------|
------------------|-------------------------|-----------------------------|
------------------|-------------------------|-----------------------------|
------------------|--2----------------------|--2--------------------------|
------------------|--2----------------------|--2--------------------------|
------------------|--0------0-0-0-0-1--0----|--0------0-0-0-0-1-1-4-4-1-1-|


                                                        
-------------------------|-----------------------------|
-------------------------|-----------------------------|
-------------------------|-----------------------------|
--2----------------------|--2--------------------------|
--2----------------------|--2------0-0-3-3-2-2-0-0-3-3-|
--0------0-0-0-0-1--0----|--0--------------------------|


                                                        
-------------------------|-----------------------------|
-------------------------|-----------------------------|
-------------------------|-----------------------------|
--2----------------------|--2--------------------------|
--2----------------------|--2--------------------------|
--0------0-0-0-0-1--0----|--0------0-0-0-0-1-1-4-4-1-1-|


                                                        
-------------------------|-----------------------------|
-------------------------|-----------------------------|
-------------------------|-----------------------------|
--2----------------------|--2--------------------------|
--2----------------------|--2------0-0-3-3-2-2-0-0-3-3-|
--0------0-0-0-0-1--0----|--0--------------------------|


                                                        
-------------------------|-----------------------------|
-------------------------|-----------------------------|
-------------------------|-----------------------------|
--2----------------------|--2--------------------------|
--2----------------------|--2--------------------------|
--0------0-0-0-0-1--0----|--0------0-0-0-0-1-1-4-4-1-1-|


                                                         
-------------------------|------------------------------|
-------------------------|------------------------------|
-------------------------|------------------------------|
--2----------------------|--2---------------------------|
--2----------------------|--2--------2--3-3-2-2-0-0-3-3-|
--0------0-0-0-0-1--0----|--0--1--4---------------------|


                                                        
-------------------------|-----------------------------|
-------------------------|-----------------------------|
-------------------------|-----------------------------|
-------------------------|-----------------------------|
-------------------------|-----------------------------|
--0------0-0-0-0-1--0----|--0------0-0-0-0-1-1-4-4-1-1-|


                                                       
-------------------------|----------------------------|
-------------------------|----------------------------|
-------------------------|----------------------------|
-------------------------|----------------------------|
-------------------------|---------0--3-3-2-2-0-0-3-3-|
--0------0-0-0-0-1--0----|--0-------------------------|


                                                        
-------------------------|-----------------------------|
-------------------------|-----------------------------|
--5----------------------|--7--------------------------|
--5----------------------|--7--------------------------|
--3------3-3-3-3-5--3----|--5------3-3-5-5-3-3-5-5-3-3-|
-------------------------|-----------------------------|


                                                                        
-------------------------|-------------------|-------------------------|
-------------------------|-------------------|-------------------------|
--5----------------------|--4----------------|-------------------------|
--5----------------------|--4----------------|--2----------------------|
--3------3-3-3-3-5--3----|--2----------------|--2----------------------|
-------------------------|-------------------|--0------0-0-0-0-1--0----|


                                                        
-----------------------------|-------------------------|
-----------------------------|-------------------------|
-----------------------------|-------------------------|
--2--------------------------|--2----------------------|
--2--------------------------|--2----------------------|
--0------0-0-0-0-1-1-4-4-1-1-|--0------0-0-0-0-1--0----|


                                                        
-----------------------------|-------------------------|
-----------------------------|-------------------------|
-----------------------------|-------------------------|
--2--------------------------|--2----------------------|
--2------0-0-3-3-2-2-0-0-3-3-|--2----------------------|
--0--------------------------|--0------0-0-0-0-1--0----|


                                                        
-----------------------------|-------------------------|
-----------------------------|-------------------------|
-----------------------------|-------------------------|
--2--------------------------|--2----------------------|
--2--------------------------|--2----------------------|
--0------0-0-0-0-1-1-4-4-1-1-|--0------0-0-0-0-1--0----|


                                                        
-----------------------------|-------------------------|
-----------------------------|-------------------------|
-----------------------------|-------------------------|
--2--------------------------|-------------------------|
--2------0-0-3-3-2-2-0-0-3-3-|-------------------------|
--0--------------------------|--0------0-0-0-0-1--0----|


                                                        
-----------------------------|-------------------------|
-----------------------------|-------------------------|
-----------------------------|-------------------------|
-----------------------------|-------------------------|
-----------------------------|-------------------------|
--0------0-0-0-0-1-1-4-4-1-1-|--0------0-0-0-0-1--0----|


                                                       
----------------------------|-------------------------|
----------------------------|-------------------------|
----------------------------|--5----------------------|
----------------------------|--5----------------------|
---------0--3-3-2-2-0-0-3-3-|--3------3-3-3-3-5--3----|
--0-------------------------|-------------------------|


                                                                            
-----------------------------|-------------------------|-------------------|
-----------------------------|-------------------------|-------------------|
--7--------------------------|--5----------------------|--4----------------|
--7--------------------------|--5----------------------|--4----------------|
--5------3-3-5-5-3-3-5-5-3-3-|--3------3-3-3-3-5--3----|--2----------------|
-----------------------------|-------------------------|-------------------|


                                                                      
---------------------|-----------------------|-----------------------|
---------------------|-----------------------|-----------------------|
---------------------|-----------------------|-----------------------|
---------9--------7--|--7/-9--9--------------|-------2---------------|
---------7--------5--|--5/-7--7--------------|--3-------3--2---------|
--0------------------|-----------------0--1--|----------------4r-----|


                                                                                
-----------------------|-----------------|--------------------|----------------|
-----------------------|-----------------|--------------------|----------------|
-----------------------|-----------------|--------------------|----------------|
-----------------------|-----------------|--------------------|--3-------------|
------------------5r---|------3/-6/-2----|--5--2--1--4--1--0--|----------------|
--4h0-0-0-4h0-0-4------|-----------------|--------------------|-------1--------|


                                                                   
--------------------|---------------|--------------|--------------|
--------------------|---------------|--------------|--------------|
--------------2--1--|--1------------|--------------|--------------|
--3/-5--5/-3--3--2--|--2------------|--------------|--------------|
--3/-5--5/-3--3--2--|--2------------|--------------|--------------|
--1/-3--3/-1--------|---------------|--------------|--------------|


                                                               
---------------|----------------|--------------|--------------|
---------------|----------------|--------------|--------------|
---------------|----------------|--------------|--------------|
----------x----|--10------------|--------------|--------------|
---------------|--8-------------|--------------|--------------|
---------------|----------------|--------------|--------------|


                                                                               
-------------------|-------------------|------------------|-------------------|
-------------------|-------------------|------------------|-------------------|
-------------------|-------------------|------------------|-------------------|
-----9--7--6-------|-------------------|------------------|--------------6----|
--7-----------7----|--5--7-----7----7--|--8--7----7----7--|--8--7--7--8-------|
-------------------|--------0----------|------------------|-------------------|


                                                                               
-------------------|-------------------|-------------------|------------------|
-------------------|-------------------|-------------------|------------------|
-------------------|-------------------|-------------------|------------------|
--7--6--6--7--9----|----------------9--|----------------9--|------------------|
-------------------|----------------7--|----------------7--|------------------|
-------------------|-------------------|-------------------|------------------|


                                                                            
------------------|------------------|------------------|------------------|
------------------|------------------|------------------|------------------|
------------------|------------------|------------------|------------------|
------------------|------------------|------------------|------------------|
------------------|------------------|------------------|------------------|
------------------|------------------|------------------|------------------|


                                                                   
------------------|---------------|---------------|---------------|
------------------|---------------|---------------|---------------|
------------------|---------------|---------------|--5------------|
------------------|---------------|---------------|---------------|
------------------|--7------------|--5------------|--3------------|
------------------|---------------|---------------|---------------|


                                                                 
---------------|---------------|---------------|----------------|
---------------|---------------|---------------|----------------|
---------------|---------------|--7------------|--10------------|
---------------|---------------|---------------|----------------|
---------------|---------------|--5------------|--8-------------|
--1------------|--0------------|---------------|----------------|


                                                                                
---------------|---------------|---------------|---------------|---------------|
---------------|---------------|---------------|---------------|---------------|
--8------------|--7------------|--6------------|--5------------|---------------|
---------------|---------------|---------------|---------------|--3------------|
--6------------|--5------------|--4------------|--3------------|---------------|
---------------|---------------|---------------|---------------|---------------|


                                                                
---------------|---------------|---------------|---------------|
---------------|---------------|---------------|---------------|
---------------|---------------|---------------|---------------|
---------------|---------------|---------------|---------------|
---------------|---------------|---------------|--7------------|
--0------------|--0------------|--0------------|---------------|


                                                                      
----------------|-----------------|---------------|------------------|
----------------|-----------------|---------------|------------------|
----------------|-----------------|---------------|------------------|
----------------|-----------------|---------------|------------------|
----------------|-----------------|---------------|------------------|
--0--------0----|--0----0----0----|--0------------|--0------5--3--0--|


                                                                          
-------------------|----------------|-------------------|----------------|
-------------------|----------------|-------------------|----------------|
-------------------|----------------|-------------------|-----------4----|
-------------------|----------------|-------------------|-----------5----|
----------3--------|----------------|----------3--------|-----------5----|
--1-1-1-1-1--------|------------1-1-|--1-1-1-1-1--------|---------0-3----|


                                                                          
-------------------|----------------|-------------------|----------------|
-------------------|----------------|-------------------|----------------|
-------------------|----------------|-------------------|-----------4----|
-------------------|----------------|-------------------|-----------5----|
----------3--------|----------------|----------3--------|-----------5----|
--1-1-1-1-1--------|------------1-1-|--1-1-1-1-1--------|---------0-3----|


                                                                          
-------------------|----------------|-------------------|----------------|
-------------------|----------------|-------------------|----------------|
-------------------|----------------|-------------------|-----------4----|
-------------------|----------------|-------------------|-----------5----|
----------3--------|----------------|----------3--------|-----------5----|
--1-1-1-1-1--------|------------1-1-|--1-1-1-1-1--------|---------0-3----|


                                                                             
-------------------|---------------|-------------------|--------------------|
-------------------|---------------|-------------------|--------------------|
-------------------|---------------|-------------------|--------------------|
-------------------|---------------|-------------------|--5--5--5--3--2-----|
----------3--------|---------------|----------3--------|-----------------3--|
--1-1-1-1-1--------|------------0--|--1-1-1-1-1--------|--------------------|


                                                                
---------------|--------------|----------------|---------------|
---------------|--------------|----------------|---------------|
--2------------|--------------|----------------|---------------|
--2------------|--------------|--5------3------|--2------------|
--0------------|--------------|--3------1------|--0------------|
---------------|--------------|----------------|---------------|


                                                                         
-------------------------|----------------|--------------|--------------|
-------------------------|----------------|--------------|--------------|
-------------------------|----------------|--------------|--------------|
---------2---------------|----------------|--------------|--------------|
--0--0-0-0---------------|--0----7~-------|--------------|--------------|
----------------0--3--0--|----------------|--------------|--------------|


                                                                              
---------------|---------------|----------------------|----------------------|
---------------|---------------|----------------------|----------------------|
---------------|---------------|----------------------|----------------------|
--2------------|--3------------|--5--5-5-5--3--3-3-3--|--5--5-5-5--3--3-3-3--|
--0------------|--1------------|--3--3-3-3--1--1-1-1--|--3--3-3-3--1--1-1-1--|
---------------|---------------|----------------------|----------------------|


                                                                    
----------------------|--------------|--------------|--------------|
----------------------|--------------|--------------|--------------|
----------------------|--------------|--------------|--------------|
----------------------|--------------|--------------|--------------|
--5--5-5-5--3--3-3-3--|--------------|--------------|--------------|
--3--3-3-3--1--1-1-1--|--------------|--------------|--------------|


                                                                           
--------------|--------------|--------------|--------------|--------------|
--------------|--------------|--------------|--------------|--------------|
--------------|--------------|--------------|--------------|--------------|
--------------|--------------|--------------|--------------|--------------|
--------------|--------------|--------------|--------------|--------------|
--------------|--------------|--------------|--------------|--------------|


                                                                           
--------------|--------------|--------------|--------------|--------------|
--------------|--------------|--------------|--------------|--------------|
--------------|--------------|--------------|--------------|--------------|
--------------|--------------|--------------|--------------|--------------|
--------------|--------------|--------------|--------------|--------------|
--------------|--------------|--------------|--------------|--------------|


                                                                           
--------------|--------------|--------------|--------------|--------------|
--------------|--------------|--------------|--------------|--------------|
--------------|--------------|--------------|--------------|--------------|
--------------|--------------|--------------|--------------|--------------|
--------------|--------------|--------------|--------------|--------------|
--------------|--------------|--------------|--------------|--------------|


                                                                            
--------------|------------------|----------------------|------------------|
--------------|------------------|----------------------|------------------|
--------------|------------------|--10----10--10--------|-------8----8/-6--|
--------------|------------------|--10------------------|--8----8----8/-6--|
--------------|------------------|--8-------------8/-6--|--6---------------|
--------------|------------------|----------------------|------------------|


                                                                         
-------------------|----------------|-----------------|-----------------|
-----------8-------|-------4--------|-----------------|-----------------|
--------------8----|-------5--------|-----------------|-----------------|
-----6h-8-----6----|----------------|-----------------|-----------------|
--4----------------|--3-------------|--4--4--4--------|--4--4--4--------|
-------------------|----------------|--2--2--2--------|--2--2--2--------|


                                                                      
----------------------------|-------------------|--------------------|
----------------------------|-------------------|--------------------|
---------2--2---------3-----|-------------------|--------------------|
--3------3--3----4----4-----|--8--10----10------|--11--10----10------|
--3--------------4----4-----|--6--8-----8-------|--9---8-----8-------|
--1--------------2----2--0--|-------------------|--------------------|


                                                            
-----------------------|----------------|------------------|
-----------------------|----------------|------------------|
-----------------------|----------------|------------------|
--11--10--8--10--------|--8--------8----|--6------6--6--6--|
--9---8---6--8---10----|--x--------x----|--x------x--x--x--|
-----------------8-----|--6--------6----|--4------4--4--4--|


                                                                  
---------------------|------------------|------------------------|
---------------------|------------------|------------------------|
---------------------|------------------|------------------------|
--11--11--11--9------|--8----8--8--8----|--9--9--8---------------|
--x---x---x---x------|--x----x--x--x----|--x--x--x------9--9--9--|
--9---9---9---7------|--6----6--6--6----|--7--7--6------7--7--7--|


                                                                            
---------------|-------------------|--------------------|------------------|
---------------|-------------------|--------------------|------------------|
---------------|-------------------|--11----------------|------------------|
---------------|-------------------|--------------------|------------------|
--8------9--9--|--9----------------|--------------------|------------------|
--6------7--7--|--7----------------|--------------------|------------------|


                                                                            
------------------|------------------|------------------|------------------|
------------------|------------------|------------------|------------------|
------------------|------------------|------------------|------------------|
------------------|------------------|------------------|------------------|
------------------|------------------|------------------|------------------|
------------------|------------------|------------------|------------------|


                                                                            
------------------|------------------|------------------|------------------|
------------------|------------------|------------------|------------------|
------------------|------------------|------------------|------------------|
------------------|------------------|------------------|------------------|
------------------|------------------|------------------|------------------|
------------------|------------------|------------------|------------------|


                                                                            
------------------|------------------|------------------|------------------|
------------------|------------------|------------------|------------------|
------------------|------------------|------------------|------------------|
------------------|------------------|------------------|------------------|
------------------|------------------|------------------|------------------|
------------------|------------------|------------------|------------------|


                                                                            
------------------|------------------|------------------|------------------|
------------------|------------------|------------------|------------------|
------------------|------------------|------------------|------------------|
------------------|------------------|------------------|------------------|
------------------|------------------|------------------|------------------|
------------------|------------------|------------------|------------------|


                                                                              
------------------|------------------|--17r---------------|------------------|
------------------|------------------|--------------------|------------------|
------------------|------------------|--------------------|------------------|
------------------|------------------|--------------------|------------------|
------------------|------------------|--------------------|------------------|
------------------|------------------|--------------------|------------------|


                    
------------------||
------------------||
------------------||
------------------||
------------------||
------------------||


Guitar 2:

                                                                                 
E||--------------|--------------|--------------|--------------|--------------|
B||--------------|--------------|--------------|--------------|--------------|
G||--------------|--------------|--------------|--------------|--------------|
D||--------------|--------------|--------------|--------------|--------------|
A||--------------|--------------|--------------|--------------|--------------|
E||--------------|--------------|--------------|--------------|--------------|


                                                                               
--------------|--------------|--------------|--------------|------------------|
--------------|--------------|--------------|--------------|----3--4-----3----|
--------------|--------------|--------------|--------------|----------5-------|
--------------|--------------|--------------|--------------|------------------|
--------------|--------------|--------------|--------------|------------------|
--------------|--------------|--------------|--------------|------------------|


                                                                                
--------------|--------------|--------------|-------------------|--------------|
--------------|--------------|--------------|-------------------|--------------|
--------------|--------------|--------------|----6-6-6-7-6~-----|--------------|
--------------|--------------|--------------|-------------------|--------------|
--------------|--------------|--------------|-------------------|--------------|
--------------|--------------|--------------|-------------------|--------------|


                                                                                
----------------------------|--------------|--------------|--------------------|
--------------------14------|--------------|--------------|----------------17~-|
--15-14-14-14-14-15---------|--------------|--------------|--------------------|
----------------------------|--------------|--------------|--------------------|
----------------------------|--------------|--------------|--------------------|
----------------------------|--------------|--------------|--------------------|


                                                                              
--------------------|------------------|------------------|------------------|
----------------17~-|------------------|------------------|------------------|
--------------------|------------------|------------------|------------------|
--------------------|------------------|------------------|------------------|
--------------------|------------------|------------------|------------------|
--------------------|------------------|------------------|------------------|


                                                                     
--------------------|--------------------|--------------------------|
----------------17~-|----17--------------|--------------------------|
--------------------|--------------------|--12b-----12b---12b---12b-|
--------------------|--------------------|--------------------------|
--------------------|--------------------|--------------------------|
--------------------|--------------------|--------------------------|


                                                                                
----------------------|------------------|------------------|------------------|
------------------10--|------------------|------------------|------------------|
--------12b-----------|------------------|------------------|------------------|
----------------------|------------------|------------------|------------------|
----------------------|------------------|------------------|------------------|
----------------------|------------------|------------------|------------------|


                                                                            
------------------|------------------|------------------|------------------|
------------------|------------------|------------------|------------------|
------------------|------------------|------------------|------------------|
------------------|------------------|------------------|------------------|
------------------|------------------|------------------|------------------|
------------------|------------------|------------------|------------------|


                                                                            
------------------|------------------|------------------|----------





Comments


Popular Vai Steve tabs & chords
Blowfish Tabs
Brother 1 Tabs
Christmas Time Is Here Tabs
Damn Good Tabs
Fever Dream Tabs
For The Love Of God 1 Tabs
Juice Tabs
Sex And Religion Tabs
The Audience Is 1 Tabs
Warm Regards Tabs


Song lyrics



↑ Back to top | Tablatures and chords are parodies/interpretations of the original songs. You may use it for private study, scholarship, research or language learning purposes only
© 2014 AZChords.com Contact us | Privacy policy | DMCA | Add/correct tabs | Request tabs | Top 50 tabs