» » »

Crossroads Paganini Tabs (ver.1)

Artists:  A B C D E F G H I J K L M N O P Q R S T U V W X Y Z # 

Crossroads Paganini Tabs (ver.1)

Vai Steve
Rating:
0/5 (0 votes)

Hard to play? Try these video lessons and learn fast.
                Years playing: Techniquely 21 yrs, but never was serious until age 11 so maybe 15-17,  Am 26 yr old

 This is really geared for the guitarist who doesn't use a pic. After losing
my electric guitar in the pawn shop a while back I pretty much needed to transpose this
for it to sound decent on the nylon strings.

 I try to post this at other guitar site, but it was rejected. He said that he didn't want to spend the 
rest of the year answering email requests for more information and told me to post somewhere else or make my
own site. Maybe, they post here.

 I had planned on combining Paganini's 5th Caprice, as played by Eliot Fisk however,
I'm no prodigy and gave up for now. Working on Moto Perpetuo though; much easier.

 Sorry, for any mistakes in the .mp3 I get stage fright when recording.
 Also, I made the tab in Cakewalk Pro Audio I don't have TableEdit. I indicated Hammerons
 and pull offs with forward and backward slashes.  /  \

 The tablature is correct and exactly how I play it. Incomplete, but still good exercise. It will
stop traffic if you play this in a guitar shop while you're pretending to buy guitar, but just there to show off.





E ------|-------------5-8-12\8--------------|---------------4-7\4-----
B ------|-----------5----------10---1-------|---------0---5-------5---
G ------|-------2-5---------------9---2-----|-------1---7-----------7-
D ------|-----2-------------------------2---|---0/2-------------------
A ------|-0/3-----------------------------3-|-2-----------------------
E ------|-----------------------------------|-------------------------

E --------|-----------------5---------------|-----------------10-13\10
B 0-------|-------------5-8---8\5-----------|---------3----10---------
G --1-----|-------0---6-----------6---0-----|-------2---10------------
D ----2-0-|-----2---7---------------7---2---|---0/3-------------------
A --------|-0/4---------------------------4-|-0-----------------------
E --------|---------------------------------|-------------------------
                                                    This A note is short ghost note
E ---------------|---------------4-7\4-------------|------------------
B -10----3-------|---------0---6-------6---0-------|---------------5--
G ----10---2-----|-------1---7-----------7---1-----|-----------5-----5
D -----------3-0-|---0/3-----------------------3-0-|---2---5-----7----
A ---------------|-2-------------------------------|-0---3---7--------
E ---------------|---------------------------------|------------------

E -5---8----12----16-|------|---------------------------------|-------
B ---5---10----13----|------|---------------------------------|-------
G -------------------|------|-------------------2\0-----------|-------
D -------------------|------|-----2-----0-3---------3-2\0-----|-----2-
A -------------------|------|---3---3-2-----2-3-----------3-2-|---3---
E ----------------0--|------|-5-------------------------------|-5-----

E --------------------------|---------------------------------|-------
B --------------------------|---------------------------------|-------
G ------------2\0-----------|---------------------------------|-------
D ----0-3---------3-2\0-----|-----2-------3-------3-------2---|-----3\
A 3-2-----2-3-----------3-2-|---4---4---5---5---2---2---3---3-|---2---
E --------------------------|-5-------5-------3-------3-------|-4-----

E ----------------0-------10-12-|------|-----0-------0-----5-----0----
B --------------0------12-------|------|---1---1---3---3-----8-6------
G ------2-----1-----13----------|------|-2-------4-------5---------7-5
D 0-------1/2-------------------|------|------------------------------
A --3\0-------------------------|------|------------------------------
E ------------------------------|------|------------------------------

E ---|-----0-------0-----5-----0-------|---------5-----------7\5-----0
B -0-|---1---1---3---3-----8-6-------0-|-----5-----8-6-5---------8-6--
G ---|-2-------4-------5---------7-5---|---6---6---------6/7----------
D ---|---------------------------------|-7----------------------------
A ---|---------------------------------|------------------------------
E ---|---------------------------------|------------------------------

E ---|---------------------------------|------------------------------
B ---|---0-----------------1-----------|------------------------------
G -7-|-5-----0---0-2-----0---------4---|-----2-------0----------------
D ---|-----7---4-----3-2-----2---3---0-|---2-------0---------3-------3
A ---|-------------------------5-------|-3-----3-2-----2---3---0---3--
E ---|---------------------------------|-----------------5-------4----

E ---|-----------|-7\5-----0-----------------------|-7-5--------------
B ---|-----------|-----8-6-------0-----------------|-----8-6-5--------
G ---|-----------|-----------7-5-----0-------------|-----------7-5-4--
D ---|-----3-----|-----------------7-------0-------|-----------------7
A -0-|---2---2-3-|---------------------8-7-------0-|------------------
E ---|-3---------|---------------------------8-7---|------------------

E ---------------|
B ---------------|
G ---------------|
D -5-------------|
A ---8-7-5-------|
E ---------8-7-5-|
            
Hard to play? Try these video lessons and learn fast. | Correct




comments powered by Disqus
↑ Back to top | Tablatures and chords are parodies/interpretations of the original songs. You may use it for private study, scholarship, research or language learning purposes only